  0
SECTION
  2
HEADER
  9
$ACADVER
  1
AC1015
  9
$ACADMAINTVER
 70
     6
  9
$DWGCODEPAGE
  3
ANSI_1254
  9
$INSBASE
 10
0.0
 20
0.0
 30
0.0
  9
$EXTMIN
 10
0.0
 20
0.0
 30
0.0
  9
$EXTMAX
 10
279.4
 20
215.9
 30
0.0
  9
$LIMMIN
 10
0.0
 20
0.0
  9
$LIMMAX
 10
279.4
 20
215.9
  9
$ORTHOMODE
 70
     0
  9
$REGENMODE
 70
     1
  9
$FILLMODE
 70
     1
  9
$QTEXTMODE
 70
     0
  9
$MIRRTEXT
 70
     1
  9
$LTSCALE
 40
1.0
  9
$ATTMODE
 70
     1
  9
$TEXTSIZE
 40
3.5
  9
$TRACEWID
 40
1.0
  9
$TEXTSTYLE
  7
Standard
  9
$CLAYER
  8
0
  9
$CELTYPE
  6
ByLayer
  9
$CECOLOR
 62
   256
  9
$CELTSCALE
 40
1.0
  9
$DISPSILH
 70
     0
  9
$DIMSCALE
 40
1.0
  9
$DIMASZ
 40
3.5
  9
$DIMEXO
 40
1.0
  9
$DIMDLI
 40
3.75
  9
$DIMRND
 40
0.0
  9
$DIMDLE
 40
0.0
  9
$DIMEXE
 40
1.0
  9
$DIMTP
 40
0.0
  9
$DIMTM
 40
0.0
  9
$DIMTXT
 40
3.5
  9
$DIMCEN
 40
2.5
  9
$DIMTSZ
 40
0.0
  9
$DIMTOL
 70
     0
  9
$DIMLIM
 70
     0
  9
$DIMTIH
 70
     1
  9
$DIMTOH
 70
     1
  9
$DIMSE1
 70
     0
  9
$DIMSE2
 70
     0
  9
$DIMTAD
 70
     1
  9
$DIMZIN
 70
     0
  9
$DIMBLK
  1

  9
$DIMASO
 70
     1
  9
$DIMSHO
 70
     1
  9
$DIMPOST
  1

  9
$DIMAPOST
  1

  9
$DIMALT
 70
     0
  9
$DIMALTD
 70
     3
  9
$DIMALTF
 40
0.0393700787
  9
$DIMLFAC
 40
1.0
  9
$DIMTOFL
 70
     1
  9
$DIMTVP
 40
0.0
  9
$DIMTIX
 70
     0
  9
$DIMSOXD
 70
     0
  9
$DIMSAH
 70
     0
  9
$DIMBLK1
  1

  9
$DIMBLK2
  1

  9
$DIMSTYLE
  2
ISO-25
  9
$DIMCLRD
 70
     0
  9
$DIMCLRE
 70
     0
  9
$DIMCLRT
 70
     0
  9
$DIMTFAC
 40
1.0
  9
$DIMGAP
 40
1.524
  9
$DIMJUST
 70
     0
  9
$DIMSD1
 70
     0
  9
$DIMSD2
 70
     0
  9
$DIMTOLJ
 70
     0
  9
$DIMTZIN
 70
     0
  9
$DIMALTZ
 70
     0
  9
$DIMALTTZ
 70
     0
  9
$DIMUPT
 70
     0
  9
$DIMDEC
 70
     2
  9
$DIMTDEC
 70
     2
  9
$DIMALTU
 70
     2
  9
$DIMALTTD
 70
     3
  9
$DIMTXSTY
  7
Standard
  9
$DIMAUNIT
 70
     0
  9
$DIMADEC
 70
     2
  9
$DIMALTRND
 40
0.0
  9
$DIMAZIN
 70
     0
  9
$DIMDSEP
 70
    44
  9
$DIMATFIT
 70
     3
  9
$DIMFRAC
 70
     0
  9
$DIMLDRBLK
  1

  9
$DIMLUNIT
 70
     2
  9
$DIMLWD
 70
    -2
  9
$DIMLWE
 70
    -2
  9
$DIMTMOVE
 70
     0
  9
$LUNITS
 70
     2
  9
$LUPREC
 70
     2
  9
$SKETCHINC
 40
1.0
  9
$FILLETRAD
 40
10.0
  9
$AUNITS
 70
     0
  9
$AUPREC
 70
     2
  9
$MENU
  1
.
  9
$ELEVATION
 40
0.0
  9
$PELEVATION
 40
0.0
  9
$THICKNESS
 40
0.0
  9
$LIMCHECK
 70
     0
  9
$CHAMFERA
 40
0.0
  9
$CHAMFERB
 40
0.0
  9
$CHAMFERC
 40
0.0
  9
$CHAMFERD
 40
0.0
  9
$SKPOLY
 70
     0
  9
$TDCREATE
 40
2459935.710454502
  9
$TDUCREATE
 40
2459935.585454502
  9
$TDUPDATE
 40
2459935.710454687
  9
$TDUUPDATE
 40
2459935.585454687
  9
$TDINDWG
 40
0.0000000116
  9
$TDUSRTIMER
 40
0.0000000116
  9
$USRTIMER
 70
     1
  9
$ANGBASE
 50
0.0
  9
$ANGDIR
 70
     0
  9
$PDMODE
 70
     0
  9
$PDSIZE
 40
-1.0
  9
$PLINEWID
 40
0.0
  9
$SPLFRAME
 70
     0
  9
$SPLINETYPE
 70
     6
  9
$SPLINESEGS
 70
     8
  9
$HANDSEED
  5
110
  9
$SURFTAB1
 70
     6
  9
$SURFTAB2
 70
     6
  9
$SURFTYPE
 70
     6
  9
$SURFU
 70
     6
  9
$SURFV
 70
     6
  9
$UCSBASE
  2

  9
$UCSNAME
  2

  9
$UCSORG
 10
0.0
 20
0.0
 30
0.0
  9
$UCSXDIR
 10
1.0
 20
0.0
 30
0.0
  9
$UCSYDIR
 10
0.0
 20
1.0
 30
0.0
  9
$UCSORTHOREF
  2

  9
$UCSORTHOVIEW
 70
     0
  9
$UCSORGTOP
 10
0.0
 20
0.0
 30
0.0
  9
$UCSORGBOTTOM
 10
0.0
 20
0.0
 30
0.0
  9
$UCSORGLEFT
 10
0.0
 20
0.0
 30
0.0
  9
$UCSORGRIGHT
 10
0.0
 20
0.0
 30
0.0
  9
$UCSORGFRONT
 10
0.0
 20
0.0
 30
0.0
  9
$UCSORGBACK
 10
0.0
 20
0.0
 30
0.0
  9
$PUCSBASE
  2

  9
$PUCSNAME
  2

  9
$PUCSORG
 10
0.0
 20
0.0
 30
0.0
  9
$PUCSXDIR
 10
1.0
 20
0.0
 30
0.0
  9
$PUCSYDIR
 10
0.0
 20
1.0
 30
0.0
  9
$PUCSORTHOREF
  2

  9
$PUCSORTHOVIEW
 70
     0
  9
$PUCSORGTOP
 10
0.0
 20
0.0
 30
0.0
  9
$PUCSORGBOTTOM
 10
0.0
 20
0.0
 30
0.0
  9
$PUCSORGLEFT
 10
0.0
 20
0.0
 30
0.0
  9
$PUCSORGRIGHT
 10
0.0
 20
0.0
 30
0.0
  9
$PUCSORGFRONT
 10
0.0
 20
0.0
 30
0.0
  9
$PUCSORGBACK
 10
0.0
 20
0.0
 30
0.0
  9
$USERI1
 70
     0
  9
$USERI2
 70
     0
  9
$USERI3
 70
     0
  9
$USERI4
 70
     0
  9
$USERI5
 70
     0
  9
$USERR1
 40
0.0
  9
$USERR2
 40
0.0
  9
$USERR3
 40
0.0
  9
$USERR4
 40
0.0
  9
$USERR5
 40
0.0
  9
$WORLDVIEW
 70
     1
  9
$SHADEDGE
 70
     3
  9
$SHADEDIF
 70
    70
  9
$TILEMODE
 70
     1
  9
$MAXACTVP
 70
    64
  9
$PINSBASE
 10
0.0
 20
0.0
 30
0.0
  9
$PLIMCHECK
 70
     0
  9
$PEXTMIN
 10
1.0000000000E+20
 20
1.0000000000E+20
 30
1.0000000000E+20
  9
$PEXTMAX
 10
-1.0000000000E+20
 20
-1.0000000000E+20
 30
-1.0000000000E+20
  9
$PLIMMIN
 10
0.0
 20
0.0
  9
$PLIMMAX
 10
420.0
 20
297.0
  9
$UNITMODE
 70
     0
  9
$VISRETAIN
 70
     1
  9
$PLINEGEN
 70
     0
  9
$PSLTSCALE
 70
     1
  9
$TREEDEPTH
 70
  3020
  9
$CMLSTYLE
  2
Standard
  9
$CMLJUST
 70
     0
  9
$CMLSCALE
 40
20.0
  9
$PROXYGRAPHICS
 70
     1
  9
$MEASUREMENT
 70
     1
  9
$CELWEIGHT
370
    -1
  9
$ENDCAPS
280
     0
  9
$JOINSTYLE
280
     0
  9
$LWDISPLAY
290
     1
  9
$INSUNITS
 70
     4
  9
$HYPERLINKBASE
  1

  9
$STYLESHEET
  1

  9
$XEDIT
290
     1
  9
$CEPSNTYPE
380
     0
  9
$PSTYLEMODE
290
     1
  9
$FINGERPRINTGUID
  2
{ff10a8a7-063f-4176-8041-4f13a73bd4e4}
  9
$VERSIONGUID
  2
{FAEB1C32-E019-11D5-929B-00C0DF256EC4}
  9
$EXTNAMES
290
     1
  9
$PSVPSCALE
 40
0.0
  9
$OLESTARTUP
290
     0
  0
ENDSEC
  0
SECTION
  2
CLASSES
  0
CLASS
  1
ACDBDICTIONARYWDFLT
  2
AcDbDictionaryWithDefault
  3
ObjectDBX Classes
 90
        0
280
     0
281
     0
  0
CLASS
  1
VISUALSTYLE
  2
AcDbVisualStyle
  3
ObjectDBX Classes
 90
     4095
280
     0
281
     0
  0
CLASS
  1
MATERIAL
  2
AcDbMaterial
  3
ObjectDBX Classes
 90
     1153
280
     0
281
     0
  0
CLASS
  1
SCALE
  2
AcDbScale
  3
ObjectDBX Classes
 90
     1153
280
     0
281
     0
  0
CLASS
  1
TABLESTYLE
  2
AcDbTableStyle
  3
ObjectDBX Classes
 90
     4095
280
     0
281
     0
  0
CLASS
  1
MLEADERSTYLE
  2
AcDbMLeaderStyle
  3
ACDB_MLEADERSTYLE_CLASS
 90
     4095
280
     0
281
     0
  0
CLASS
  1
SUN
  2
AcDbSun
  3
SCENEOE
 90
     1153
280
     0
281
     0
  0
CLASS
  1
ACDBPLACEHOLDER
  2
AcDbPlaceHolder
  3
ObjectDBX Classes
 90
        0
280
     0
281
     0
  0
CLASS
  1
LAYOUT
  2
AcDbLayout
  3
ObjectDBX Classes
 90
        0
280
     0
281
     0
  0
ENDSEC
  0
SECTION
  2
TABLES
  0
TABLE
  2
VPORT
  5
8
330
0
100
AcDbSymbolTable
 70
     1
  0
VPORT
  5
29
330
8
100
AcDbSymbolTableRecord
100
AcDbViewportTableRecord
  2
*Active
 70
     0
 10
0.0
 20
0.0
 11
1.0
 21
1.0
 12
139.7
 22
107.95
 13
0.0
 23
0.0
 14
10.0
 24
10.0
 15
10.0
 25
10.0
 16
0.0
 26
0.0
 36
1.0
 17
0.0
 27
0.0
 37
0.0
 40
215.9
 41
1.2941176471
 42
50.0
 43
0.0
 44
0.0
 50
0.0
 51
0.0
 71
     0
 72
  2000
 73
     1
 74
     3
 75
     0
 76
     0
 77
     0
 78
     0
281
     0
 65
     1
110
0.0
120
0.0
130
0.0
111
1.0
121
0.0
131
0.0
112
0.0
122
1.0
132
0.0
 79
     0
146
0.0
  0
ENDTAB
  0
TABLE
  2
LTYPE
  5
5
330
0
100
AcDbSymbolTable
 70
     6
  0
LTYPE
  5
14
330
5
100
AcDbSymbolTableRecord
100
AcDbLinetypeTableRecord
  2
ByBlock
 70
     0
  3

 72
    65
 73
     0
 40
0.0
  0
LTYPE
  5
15
330
5
100
AcDbSymbolTableRecord
100
AcDbLinetypeTableRecord
  2
ByLayer
 70
     0
  3

 72
    65
 73
     0
 40
0.0
  0
LTYPE
  5
16
330
5
100
AcDbSymbolTableRecord
100
AcDbLinetypeTableRecord
  2
Continuous
 70
     0
  3
Solid line
 72
    65
 73
     0
 40
0.0
  0
LTYPE
  5
6E
330
5
100
AcDbSymbolTableRecord
100
AcDbLinetypeTableRecord
  2
HIDDEN
 70
     0
  3
Hidden __ __ __ __ __ __ __ __ __ __ __ __ __ __
 72
    65
 73
     2
 40
1.905
 49
1.27
 74
     0
 49
-0.635
 74
     0
  0
LTYPE
  5
6F
330
5
100
AcDbSymbolTableRecord
100
AcDbLinetypeTableRecord
  2
PHANTOM
 70
     0
  3
Phantom ______  __  __  ______  __  __  ______
 72
    65
 73
     6
 40
12.7
 49
6.35
 74
     0
 49
-1.27
 74
     0
 49
1.27
 74
     0
 49
-1.27
 74
     0
 49
1.27
 74
     0
 49
-1.27
 74
     0
  0
LTYPE
  5
70
330
5
100
AcDbSymbolTableRecord
100
AcDbLinetypeTableRecord
  2
CENTER
 70
     0
  3
Center ____ _ ____ _ ____ _ ____ _ ____ _ ____
 72
    65
 73
     4
 40
10.16
 49
6.35
 74
     0
 49
-1.27
 74
     0
 49
1.27
 74
     0
 49
-1.27
 74
     0
  0
LTYPE
  5
71
330
5
100
AcDbSymbolTableRecord
100
AcDbLinetypeTableRecord
  2
CENTERX2
 70
     0
  3
Center (2x) ________  __  ________  __  _____
 72
    65
 73
     4
 40
20.32
 49
12.7
 74
     0
 49
-2.54
 74
     0
 49
2.54
 74
     0
 49
-2.54
 74
     0
  0
LTYPE
  5
72
330
5
100
AcDbSymbolTableRecord
100
AcDbLinetypeTableRecord
  2
DOT2
 70
     0
  3
Dot (.5x) ........................................
 72
    65
 73
     2
 40
0.635
 49
0.0
 74
     0
 49
-0.635
 74
     0
  0
ENDTAB
  0
TABLE
  2
LAYER
  5
2
330
0
100
AcDbSymbolTable
 70
    17
  0
LAYER
  5
10
330
2
100
AcDbSymbolTableRecord
100
AcDbLayerTableRecord
  2
0
 70
     0
 62
     7
  6
Continuous
370
    -3
390
F
  0
LAYER
  5
73
330
2
100
AcDbSymbolTableRecord
100
AcDbLayerTableRecord
  2
FORMAT
 70
     0
 62
     7
  6
Continuous
370
    -3
390
F
  0
LAYER
  5
74
330
2
100
AcDbSymbolTableRecord
100
AcDbLayerTableRecord
  2
YARDIMCI_GEOMETRI
 70
     0
 62
    -6
  6
Continuous
290
     0
370
    -3
390
F
  0
LAYER
  5
75
330
2
100
AcDbSymbolTableRecord
100
AcDbLayerTableRecord
  2
SAYFA_CERCEVESI
 70
     0
 62
     7
  6
Continuous
370
    25
390
F
  0
LAYER
  5
76
330
2
100
AcDbSymbolTableRecord
100
AcDbLayerTableRecord
  2
ANTET
 70
     0
 62
     7
  6
Continuous
370
    -3
390
F
  0
LAYER
  5
77
330
2
100
AcDbSymbolTableRecord
100
AcDbLayerTableRecord
  2
OLCU
 70
     0
 62
   150
  6
Continuous
370
    -3
390
F
  0
LAYER
  5
78
330
2
100
AcDbSymbolTableRecord
100
AcDbLayerTableRecord
  2
METIN
 70
     0
 62
    96
  6
Continuous
370
    -3
390
F
  0
LAYER
  5
79
330
2
100
AcDbSymbolTableRecord
100
AcDbLayerTableRecord
  2
BALON
 70
     0
 62
     5
  6
Continuous
370
    -3
390
F
  0
LAYER
  5
7A
330
2
100
AcDbSymbolTableRecord
100
AcDbLayerTableRecord
  2
VURGU
 70
     0
 62
     7
  6
Continuous
370
    -3
390
F
  0
LAYER
  5
7B
330
2
100
AcDbSymbolTableRecord
100
AcDbLayerTableRecord
  2
SILIK
 70
     0
 62
     7
  6
Continuous
370
    -3
390
F
  0
LAYER
  5
7C
330
2
100
AcDbSymbolTableRecord
100
AcDbLayerTableRecord
  2
MODEL
 70
     0
 62
     7
  6
Continuous
370
    -3
390
F
  0
LAYER
  5
7D
330
2
100
AcDbSymbolTableRecord
100
AcDbLayerTableRecord
  2
DETAYLANDıRMA
 70
     0
 62
   190
  6
Continuous
370
    -3
390
F
  0
LAYER
  5
7E
330
2
100
AcDbSymbolTableRecord
100
AcDbLayerTableRecord
  2
TOLERANS
 70
     0
 62
   230
  6
Continuous
370
    -3
390
F
  0
LAYER
  5
7F
330
2
100
AcDbSymbolTableRecord
100
AcDbLayerTableRecord
  2
MERKEZ_CIZGILERI
 70
     0
 62
    30
  6
Continuous
370
    -3
390
F
  0
LAYER
  5
80
330
2
100
AcDbSymbolTableRecord
100
AcDbLayerTableRecord
  2
KESIT-DETAY_CIZGILERI
 70
     0
 62
     7
  6
Continuous
370
    -3
390
F
  0
LAYER
  5
81
330
2
100
AcDbSymbolTableRecord
100
AcDbLayerTableRecord
  2
\U+041E\U+0421\U+0415\U+0412\U+042B\U+0415
 70
     0
 62
     7
  6
Continuous
370
    -3
390
F
  0
LAYER
  5
82
330
2
100
AcDbSymbolTableRecord
100
AcDbLayerTableRecord
  2
\U+0412\U+041E\U+0414\U+042F\U+041D\U+042B\U+0415_\U+0417\U+041D\U+0410\U+041A\U+0418
 70
     0
 62
    11
  6
Continuous
370
    -3
390
F
  0
ENDTAB
  0
TABLE
  2
STYLE
  5
3
330
0
100
AcDbSymbolTable
 70
     1
  0
STYLE
  5
11
330
3
100
AcDbSymbolTableRecord
100
AcDbTextStyleTableRecord
  2
Standard
 70
     0
 40
0.0
 41
1.0
 50
0.0
 71
     0
 42
3.5
  3
txt
  4

  0
ENDTAB
  0
TABLE
  2
VIEW
  5
6
330
0
100
AcDbSymbolTable
 70
     0
  0
ENDTAB
  0
TABLE
  2
UCS
  5
7
330
0
100
AcDbSymbolTable
 70
     0
  0
ENDTAB
  0
TABLE
  2
APPID
  5
9
330
0
100
AcDbSymbolTable
 70
     1
  0
APPID
  5
12
330
9
100
AcDbSymbolTableRecord
100
AcDbRegAppTableRecord
  2
ACAD
 70
     0
  0
ENDTAB
  0
TABLE
  2
DIMSTYLE
  5
A
330
0
100
AcDbSymbolTable
 70
     1
100
AcDbDimStyleTable
  0
DIMSTYLE
105
27
330
A
100
AcDbSymbolTableRecord
100
AcDbDimStyleTableRecord
  2
ISO-25
 70
     0
 41
2.5
 42
0.625
 43
3.75
 44
1.25
 73
     0
 74
     0
 77
     1
 78
     8
140
2.5
141
2.5
143
0.0393700787
147
0.625
171
     3
172
     1
178
     0
271
     2
272
     2
274
     3
278
    44
283
     0
284
     8
340
11
  0
ENDTAB
  0
TABLE
  2
BLOCK_RECORD
  5
1
330
0
100
AcDbSymbolTable
 70
     4
  0
BLOCK_RECORD
  5
1F
330
1
100
AcDbSymbolTableRecord
100
AcDbBlockTableRecord
  2
*Model_Space
340
22
  0
BLOCK_RECORD
  5
1B
330
1
100
AcDbSymbolTableRecord
100
AcDbBlockTableRecord
  2
*Paper_Space
340
1E
  0
BLOCK_RECORD
  5
23
330
1
100
AcDbSymbolTableRecord
100
AcDbBlockTableRecord
  2
*Paper_Space0
340
26
  0
BLOCK_RECORD
  5
8C
330
1
100
AcDbSymbolTableRecord
100
AcDbBlockTableRecord
  2
SW_CENTERMARKSYMBOL_0
340
0
102
{BLKREFS
331
97
102
}
  0
BLOCK_RECORD
  5
DE
330
1
100
AcDbSymbolTableRecord
100
AcDbBlockTableRecord
  2
SW_CENTERMARKSYMBOL_1
340
0
102
{BLKREFS
331
E9
102
}
  0
BLOCK_RECORD
  5
EA
330
1
100
AcDbSymbolTableRecord
100
AcDbBlockTableRecord
  2
SW_CENTERMARKSYMBOL_2
340
0
102
{BLKREFS
331
F5
102
}
  0
ENDTAB
  0
ENDSEC
  0
SECTION
  2
BLOCKS
  0
BLOCK
  5
20
330
1F
100
AcDbEntity
  8
0
100
AcDbBlockBegin
  2
*Model_Space
 70
     0
 10
0.0
 20
0.0
 30
0.0
  3
*Model_Space
  1

  0
ENDBLK
  5
21
330
1F
100
AcDbEntity
  8
0
100
AcDbBlockEnd
  0
BLOCK
  5
1C
330
1B
100
AcDbEntity
 67
     1
  8
0
100
AcDbBlockBegin
  2
*Paper_Space
 70
     0
 10
0.0
 20
0.0
 30
0.0
  3
*Paper_Space
  1

  0
ENDBLK
  5
1D
330
1B
100
AcDbEntity
 67
     1
  8
0
100
AcDbBlockEnd
  0
BLOCK
  5
24
330
23
100
AcDbEntity
  8
0
100
AcDbBlockBegin
  2
*Paper_Space0
 70
     0
 10
0.0
 20
0.0
 30
0.0
  3
*Paper_Space0
  1

  0
ENDBLK
  5
25
330
23
100
AcDbEntity
  8
0
100
AcDbBlockEnd
  0
BLOCK
  5
8D
330
8C
100
AcDbEntity
  8
0
100
AcDbBlockBegin
  2
SW_CENTERMARKSYMBOL_0
 70
     0
 10
0.0
 20
0.0
 30
0.0
  3
SW_CENTERMARKSYMBOL_0
  1

  0
LINE
  5
8F
330
8C
100
AcDbEntity
  8
FORMAT
 62
     0
100
AcDbLine
 10
0.0
 20
0.0
 30
0.0
 11
0.0
 21
2.5
 31
0.0
  0
LINE
  5
90
330
8C
100
AcDbEntity
  8
FORMAT
 62
     0
100
AcDbLine
 10
0.0
 20
0.0
 30
0.0
 11
-2.5
 21
0.0
 31
0.0
  0
LINE
  5
91
330
8C
100
AcDbEntity
  8
FORMAT
 62
     0
100
AcDbLine
 10
0.0
 20
0.0
 30
0.0
 11
0.0
 21
-2.5
 31
0.0
  0
LINE
  5
92
330
8C
100
AcDbEntity
  8
FORMAT
 62
     0
100
AcDbLine
 10
0.0
 20
0.0
 30
0.0
 11
2.5
 21
0.0
 31
0.0
  0
LINE
  5
93
330
8C
100
AcDbEntity
  8
FORMAT
 62
     0
100
AcDbLine
 10
0.0
 20
5.0
 30
0.0
 11
0.0
 21
203.2
 31
0.0
  0
LINE
  5
94
330
8C
100
AcDbEntity
  8
FORMAT
 62
     0
100
AcDbLine
 10
-5.0
 20
0.0
 30
0.0
 11
-203.2
 21
0.0
 31
0.0
  0
LINE
  5
95
330
8C
100
AcDbEntity
  8
FORMAT
 62
     0
100
AcDbLine
 10
0.0
 20
-5.0
 30
0.0
 11
0.0
 21
-203.2
 31
0.0
  0
LINE
  5
96
330
8C
100
AcDbEntity
  8
FORMAT
 62
     0
100
AcDbLine
 10
5.0
 20
0.0
 30
0.0
 11
203.2
 21
0.0
 31
0.0
  0
ENDBLK
  5
8E
330
8C
100
AcDbEntity
  8
0
100
AcDbBlockEnd
  0
BLOCK
  5
DF
330
DE
100
AcDbEntity
  8
0
100
AcDbBlockBegin
  2
SW_CENTERMARKSYMBOL_1
 70
     0
 10
0.0
 20
0.0
 30
0.0
  3
SW_CENTERMARKSYMBOL_1
  1

  0
LINE
  5
E1
330
DE
100
AcDbEntity
  8
FORMAT
 62
     0
100
AcDbLine
 10
0.0
 20
0.0
 30
0.0
 11
0.0
 21
2.5
 31
0.0
  0
LINE
  5
E2
330
DE
100
AcDbEntity
  8
FORMAT
 62
     0
100
AcDbLine
 10
0.0
 20
0.0
 30
0.0
 11
-2.5
 21
0.0
 31
0.0
  0
LINE
  5
E3
330
DE
100
AcDbEntity
  8
FORMAT
 62
     0
100
AcDbLine
 10
0.0
 20
0.0
 30
0.0
 11
0.0
 21
-2.5
 31
0.0
  0
LINE
  5
E4
330
DE
100
AcDbEntity
  8
FORMAT
 62
     0
100
AcDbLine
 10
0.0
 20
0.0
 30
0.0
 11
2.5
 21
0.0
 31
0.0
  0
LINE
  5
E5
330
DE
100
AcDbEntity
  8
FORMAT
 62
     0
100
AcDbLine
 10
0.0
 20
5.0
 30
0.0
 11
0.0
 21
9.5
 31
0.0
  0
LINE
  5
E6
330
DE
100
AcDbEntity
  8
FORMAT
 62
     0
100
AcDbLine
 10
-5.0
 20
0.0
 30
0.0
 11
-9.5
 21
0.0
 31
0.0
  0
LINE
  5
E7
330
DE
100
AcDbEntity
  8
FORMAT
 62
     0
100
AcDbLine
 10
0.0
 20
-5.0
 30
0.0
 11
0.0
 21
-9.5
 31
0.0
  0
LINE
  5
E8
330
DE
100
AcDbEntity
  8
FORMAT
 62
     0
100
AcDbLine
 10
5.0
 20
0.0
 30
0.0
 11
9.5
 21
0.0
 31
0.0
  0
ENDBLK
  5
E0
330
DE
100
AcDbEntity
  8
0
100
AcDbBlockEnd
  0
BLOCK
  5
EB
330
EA
100
AcDbEntity
  8
0
100
AcDbBlockBegin
  2
SW_CENTERMARKSYMBOL_2
 70
     0
 10
0.0
 20
0.0
 30
0.0
  3
SW_CENTERMARKSYMBOL_2
  1

  0
LINE
  5
ED
330
EA
100
AcDbEntity
  8
FORMAT
 62
     0
100
AcDbLine
 10
0.0
 20
0.0
 30
0.0
 11
0.0
 21
2.5
 31
0.0
  0
LINE
  5
EE
330
EA
100
AcDbEntity
  8
FORMAT
 62
     0
100
AcDbLine
 10
0.0
 20
0.0
 30
0.0
 11
-2.5
 21
0.0
 31
0.0
  0
LINE
  5
EF
330
EA
100
AcDbEntity
  8
FORMAT
 62
     0
100
AcDbLine
 10
0.0
 20
0.0
 30
0.0
 11
0.0
 21
-2.5
 31
0.0
  0
LINE
  5
F0
330
EA
100
AcDbEntity
  8
FORMAT
 62
     0
100
AcDbLine
 10
0.0
 20
0.0
 30
0.0
 11
2.5
 21
0.0
 31
0.0
  0
LINE
  5
F1
330
EA
100
AcDbEntity
  8
FORMAT
 62
     0
100
AcDbLine
 10
0.0
 20
5.0
 30
0.0
 11
0.0
 21
9.5
 31
0.0
  0
LINE
  5
F2
330
EA
100
AcDbEntity
  8
FORMAT
 62
     0
100
AcDbLine
 10
-5.0
 20
0.0
 30
0.0
 11
-9.5
 21
0.0
 31
0.0
  0
LINE
  5
F3
330
EA
100
AcDbEntity
  8
FORMAT
 62
     0
100
AcDbLine
 10
0.0
 20
-5.0
 30
0.0
 11
0.0
 21
-9.5
 31
0.0
  0
LINE
  5
F4
330
EA
100
AcDbEntity
  8
FORMAT
 62
     0
100
AcDbLine
 10
5.0
 20
0.0
 30
0.0
 11
9.5
 21
0.0
 31
0.0
  0
ENDBLK
  5
EC
330
EA
100
AcDbEntity
  8
0
100
AcDbBlockEnd
  0
ENDSEC
  0
SECTION
  2
ENTITIES
  0
LINE
  5
83
330
1F
100
AcDbEntity
  8
0
  6
Continuous
 62
     7
370
    25
100
AcDbLine
 10
137.6070913462
 20
338.963494164
 30
0.0
 11
137.6070913462
 21
341.5949519231
 31
0.0
  0
LINE
  5
84
330
1F
100
AcDbEntity
  8
0
  6
Continuous
 62
     7
370
    25
100
AcDbLine
 10
123.6070913462
 20
341.5949519231
 30
0.0
 11
123.6070913462
 21
338.9612853213
 31
0.0
  0
CIRCLE
  5
85
330
1F
100
AcDbEntity
  8
0
  6
Continuous
 62
     7
370
    25
100
AcDbCircle
 10
130.6070913462
 20
95.8949519231
 30
0.0
 40
243.0
  0
ARC
  5
86
330
1F
100
AcDbEntity
  8
0
  6
Continuous
 62
     7
370
    25
100
AcDbCircle
 10
130.6070913462
 20
95.8949519231
 30
0.0
 40
243.9999999999998
100
AcDbArc
 50
91.6439569368
 51
180.0
  0
ARC
  5
87
330
1F
100
AcDbEntity
  8
0
  6
Continuous
 62
     7
370
    25
100
AcDbCircle
 10
130.6070913462
 20
95.8949519231
 30
0.0
 40
243.9999999999998
100
AcDbArc
 50
180.0
 51
88.3560430632
  0
SPLINE
  5
88
330
1F
100
AcDbEntity
  8
0
  6
Continuous
 62
     7
370
    25
100
AcDbSpline
210
0.0
220
0.0
230
1.0
 70
     8
 71
     3
 72
    14
 73
    10
 74
     0
 42
0.00000001
 43
0.00000001
 40
0.0
 40
0.0
 40
0.0
 40
0.0
 40
0.1431726060245628
 40
0.2863453908601625
 40
0.4295099153797013
 40
0.5726660417830963
 40
0.715835463307995
 40
0.8590060887279083
 40
1.0
 40
1.0
 40
1.0
 40
1.0
 10
135.5575603423361
 20
338.9444759677136
 30
0.0
 10
134.9463338263258
 20
338.9488425296249
 30
0.0
 10
133.7238800309327
 20
338.9575756589009
 30
0.0
 10
131.388997134525
 20
338.9678200553187
 30
0.0
 10
129.0072258013059
 20
338.9655211887398
 30
0.0
 10
126.7909239616373
 20
338.9527793619184
 30
0.0
 10
125.0233831732568
 20
338.9395346901421
 30
0.0
 10
123.8318370697498
 20
338.9365549268045
 30
0.0
 10
123.6855164625904
 20
338.9530840611185
 30
0.0
 10
123.6129165704882
 20
338.9612853212898
 30
0.0
  0
SPLINE
  5
89
330
1F
100
AcDbEntity
  8
0
  6
Continuous
 62
     7
370
    25
100
AcDbSpline
210
0.0
220
0.0
230
1.0
 70
     8
 71
     3
 72
    10
 73
     6
 74
     0
 42
0.00000001
 43
0.00000001
 40
0.0
 40
0.0
 40
0.0
 40
0.0
 40
0.3013777206702911
 40
0.7304068608813222
 40
1.0
 40
1.0
 40
1.0
 40
1.0
 10
137.5240478199439
 20
338.963494163985
 30
0.0
 10
137.5184517579774
 20
338.9562974961896
 30
0.0
 10
137.5048893684113
 20
338.9388559430395
 30
0.0
 10
136.7203216481874
 20
338.9375762347236
 30
0.0
 10
135.8813234889637
 20
338.9425547829851
 30
0.0
 10
135.5575603423361
 20
338.9444759677136
 30
0.0
  0
CIRCLE
  5
8A
330
1F
100
AcDbEntity
  8
0
  6
Continuous
 62
     7
370
    25
100
AcDbCircle
 10
130.6070913462
 20
95.8949519231
 30
0.0
 40
200.7
  0
LINE
  5
8B
330
1F
100
AcDbEntity
  8
0
  6
Continuous
 62
     7
370
    25
100
AcDbLine
 10
137.6070913462
 20
341.5949519231
 30
0.0
 11
123.6070913462
 21
341.5949519231
 31
0.0
  0
INSERT
  5
97
330
1F
100
AcDbEntity
  8
FORMAT
 62
     7
100
AcDbBlockReference
  2
SW_CENTERMARKSYMBOL_0
 10
130.6070913462
 20
95.8949519231
 30
0.0
  0
LWPOLYLINE
  5
98
330
1F
100
AcDbEntity
  8
0
  6
Continuous
 62
     7
370
    25
100
AcDbPolyline
 90
        9
 70
   128
 43
0.0
 10
713.4764782766
 20
338.967614891
 10
712.8402851705
 20
338.9586818813
 10
712.2040926672
 20
338.949706054
 10
711.5679007693
 20
338.9406874091
 10
710.9317094799
 20
338.9316259467
 10
710.2955188018
 20
338.9225216669
 10
709.6593287379
 20
338.9133745697
 10
709.0231392911
 20
338.904184655
 10
708.3869504642
 20
338.8949519231
  0
ARC
  5
99
330
1F
100
AcDbEntity
  8
0
  6
Continuous
 62
     7
370
    25
100
AcDbCircle
 10
845.8869504642
 20
-9113.730048077
 30
0.0
 40
9453.625000000093
100
AcDbArc
 50
90.0
 51
90.718758123
  0
ARC
  5
9A
330
1F
100
AcDbEntity
  8
0
  6
Continuous
 62
     7
370
    25
100
AcDbCircle
 10
845.8869504642
 20
9305.5199519232
 30
0.0
 40
9453.625000000091
100
AcDbArc
 50
269.1666215364
 51
270.0
  0
LINE
  5
9B
330
1F
100
AcDbEntity
  8
0
  6
Continuous
 62
     7
370
    25
100
AcDbLine
 10
845.8869504642
 20
-148.1050480769
 30
0.0
 11
870.8869504642
 21
-148.1050480769
 31
0.0
  0
LINE
  5
9C
330
1F
100
AcDbEntity
  8
0
  6
Continuous
 62
     7
370
    25
100
AcDbLine
 10
870.8869504642
 20
339.8949519231
 30
0.0
 11
845.8869504642
 21
339.8949519231
 31
0.0
  0
ARC
  5
9D
330
1F
100
AcDbEntity
  8
0
  6
Continuous
 62
     7
370
    25
100
AcDbCircle
 10
870.8869504642
 20
-9113.730048077
 30
0.0
 40
9453.625000000093
100
AcDbArc
 50
89.2812318344
 51
90.0
  0
LWPOLYLINE
  5
9E
330
1F
100
AcDbEntity
  8
0
  6
Continuous
 62
     7
370
    25
100
AcDbPolyline
 90
        9
 70
   128
 43
0.0
 10
1008.3869504642
 20
338.8949519231
 10
1007.7509782922
 20
338.9041815181
 10
1007.1150055008
 20
338.913368325
 10
1006.4790320927
 20
338.9225123436
 10
1005.8430580708
 20
338.931613574
 10
1005.2070834381
 20
338.940672016
 10
1004.5711081973
 20
338.9496876698
 10
1003.9351323514
 20
338.9586605351
 10
1003.2991559033
 20
338.967590612
  0
ARC
  5
9F
330
1F
100
AcDbEntity
  8
0
  6
Continuous
 62
     7
370
    25
100
AcDbCircle
 10
870.8869504642
 20
9305.5199519232
 30
0.0
 40
9453.625000000091
100
AcDbArc
 50
270.0
 51
270.8333784636
  0
LINE
  5
A0
330
1F
100
AcDbEntity
  8
0
  6
Continuous
 62
     7
370
    25
100
AcDbLine
 10
727.3869504642
 20
339.1485643427
 30
0.0
 11
727.3869504642
 21
341.5949519231
 31
0.0
  0
LINE
  5
A1
330
1F
100
AcDbEntity
  8
0
  6
Continuous
 62
     7
370
    25
100
AcDbLine
 10
713.3869504642
 20
341.5949519231
 30
0.0
 11
713.3869504642
 21
338.9650617069
 31
0.0
  0
LINE
  5
A2
330
1F
100
AcDbEntity
  8
0
  6
Continuous
 62
     7
370
    25
100
AcDbLine
 10
1003.3869504642
 20
338.9650908538
 30
0.0
 11
1003.3869504642
 21
341.5949519231
 31
0.0
  0
LINE
  5
A3
330
1F
100
AcDbEntity
  8
0
  6
Continuous
 62
     7
370
    25
100
AcDbLine
 10
989.3869504642
 20
341.5949519231
 30
0.0
 11
989.3869504642
 21
339.1484840461
 31
0.0
  0
LINE
  5
A4
330
1F
100
AcDbEntity
  8
0
  6
Continuous
 62
     7
370
    25
100
AcDbLine
 10
708.3869504642
 20
95.8949519231
 30
0.0
 11
708.3869504642
 21
338.8949519231
 31
0.0
  0
LINE
  5
A5
330
1F
100
AcDbEntity
  8
0
  6
Continuous
 62
     7
370
    25
100
AcDbLine
 10
708.3869504642
 20
-147.1050480769
 30
0.0
 11
708.3869504642
 21
95.8949519231
 31
0.0
  0
SPLINE
  5
A6
330
1F
100
AcDbEntity
  8
0
  6
Continuous
 62
     7
370
    25
100
AcDbSpline
210
0.0
220
0.0
230
1.0
 70
     8
 71
     3
 72
    17
 73
    13
 74
     0
 42
0.00000001
 43
0.00000001
 40
0.0
 40
0.0
 40
0.0
 40
0.0
 40
0.070380431294806
 40
0.1777035332080344
 40
0.2850809608219153
 40
0.3925343805031136
 40
0.4999993648134632
 40
0.6074142706111494
 40
0.7147905017076042
 40
0.8221767447717677
 40
0.929586795899358
 40
1.0
 40
1.0
 40
1.0
 40
1.0
 10
727.2973672849365
 20
339.1485536164236
 30
0.0
 10
727.2994132636585
 20
339.148620936226
 30
0.0
 10
727.3045791548174
 20
339.1487909119782
 30
0.0
 10
726.4165606313607
 20
339.1129263260779
 30
0.0
 10
724.8498674280694
 20
339.0580212131132
 30
0.0
 10
722.7486547146052
 20
339.0001924767123
 30
0.0
 10
720.3882212824591
 20
338.957280443649
 30
0.0
 10
718.0279269361389
 20
338.9374680485059
 30
0.0
 10
715.9263627139189
 20
338.9394718977133
 30
0.0
 10
714.3583711585121
 20
338.9527885238682
 30
0.0
 10
713.469364497964
 20
338.965104481037
 30
0.0
 10
713.474565788412
 20
338.9650712032478
 30
0.0
 10
713.4766253588851
 20
338.9650580261425
 30
0.0
  0
LINE
  5
A7
330
1F
100
AcDbEntity
  8
0
  6
Continuous
 62
     7
370
    25
100
AcDbLine
 10
1008.3869504642
 20
95.8949519231
 30
0.0
 11
1008.3869504642
 21
338.8949519231
 31
0.0
  0
LINE
  5
A8
330
1F
100
AcDbEntity
  8
0
  6
Continuous
 62
     7
370
    25
100
AcDbLine
 10
1008.3869504642
 20
-147.1050480769
 30
0.0
 11
1008.3869504642
 21
95.8949519231
 31
0.0
  0
SPLINE
  5
A9
330
1F
100
AcDbEntity
  8
0
  6
Continuous
 62
     7
370
    25
100
AcDbSpline
210
0.0
220
0.0
230
1.0
 70
     8
 71
     3
 72
    17
 73
    13
 74
     0
 42
0.00000001
 43
0.00000001
 40
0.0
 40
0.0
 40
0.0
 40
0.0
 40
0.0719617726099637
 40
0.1793621901822193
 40
0.2867725821903376
 40
0.3941838773999504
 40
0.501571688304666
 40
0.6089480182182939
 40
0.7163614714978203
 40
0.8238261062112202
 40
0.9312822810621982
 40
1.0
 40
1.0
 40
1.0
 40
1.0
 10
1003.299160604709
 20
338.9650864058185
 30
0.0
 10
1003.299030355519
 20
338.9650658855972
 30
0.0
 10
1003.29870571399
 20
338.9650147396666
 30
0.0
 10
1002.397361416073
 20
338.9525741453892
 30
0.0
 10
1000.819683603852
 20
338.9393242438317
 30
0.0
 10
998.7122743580121
 20
338.9375868892827
 30
0.0
 10
996.3505608872475
 20
338.9577541552425
 30
0.0
 10
993.9934093778575
 20
339.000934251686
 30
0.0
 10
991.8977205612883
 20
339.0588596850739
 30
0.0
 10
990.3392795809774
 20
339.1136175072973
 30
0.0
 10
989.4631510739521
 20
339.1490494280883
 30
0.0
 10
989.4741347744065
 20
339.1486363319687
 30
0.0
 10
989.4784190348295
 20
339.1484752012674
 30
0.0
  0
LINE
  5
AA
330
1F
100
AcDbEntity
  8
0
  6
Continuous
 62
     7
370
    25
100
AcDbLine
 10
727.3869504642
 20
341.5949519231
 30
0.0
 11
713.3869504642
 21
341.5949519231
 31
0.0
  0
LINE
  5
AB
330
1F
100
AcDbEntity
  8
0
  6
Continuous
 62
     7
370
    25
100
AcDbLine
 10
1003.3869504642
 20
341.5949519231
 30
0.0
 11
989.3869504642
 21
341.5949519231
 31
0.0
  0
LINE
  5
AC
330
1F
100
AcDbEntity
  8
0
  6
Continuous
 62
     1
370
    25
100
AcDbLine
 10
845.8869504642
 20
95.8949519231
 30
0.0
 11
845.8869504642
 21
339.8949519231
 31
0.0
  0
LINE
  5
AD
330
1F
100
AcDbEntity
  8
0
  6
Continuous
 62
     1
370
    25
100
AcDbLine
 10
845.8869504642
 20
-148.1050480769
 30
0.0
 11
845.8869504642
 21
95.8949519231
 31
0.0
  0
LINE
  5
AE
330
1F
100
AcDbEntity
  8
0
  6
Continuous
 62
     1
370
    25
100
AcDbLine
 10
870.8869504642
 20
95.8949519231
 30
0.0
 11
870.8869504642
 21
339.8949519231
 31
0.0
  0
LINE
  5
AF
330
1F
100
AcDbEntity
  8
0
  6
Continuous
 62
     1
370
    25
100
AcDbLine
 10
870.8869504642
 20
-148.1050480769
 30
0.0
 11
870.8869504642
 21
95.8949519231
 31
0.0
  0
ARC
  5
B0
330
1F
100
AcDbEntity
  8
0
  6
Continuous
 62
     7
370
    25
100
AcDbCircle
 10
9340.2320913462
 20
683.0592391682
 30
0.0
 40
9453.625000000091
100
AcDbArc
 50
180.0
 51
180.8333784636
  0
ARC
  5
B1
330
1F
100
AcDbEntity
  8
0
  6
Continuous
 62
     7
370
    25
100
AcDbCircle
 10
-9079.0179086539
 20
683.0592391682
 30
0.0
 40
9453.625000000091
100
AcDbArc
 50
359.1666215364
 51
0.0
  0
LINE
  5
B2
330
1F
100
AcDbEntity
  8
0
  6
Continuous
 62
     7
370
    25
100
AcDbLine
 10
374.6070913462
 20
683.0592391682
 30
0.0
 11
374.6070913462
 21
708.0592391682
 31
0.0
  0
LINE
  5
B3
330
1F
100
AcDbEntity
  8
0
  6
Continuous
 62
     7
370
    25
100
AcDbLine
 10
-113.3929086538
 20
708.0592391682
 30
0.0
 11
-113.3929086538
 21
683.0592391682
 31
0.0
  0
ARC
  5
B4
330
1F
100
AcDbEntity
  8
0
  6
Continuous
 62
     7
370
    25
100
AcDbCircle
 10
9340.2320913462
 20
708.0592391682
 30
0.0
 40
9453.625000000091
100
AcDbArc
 50
179.1666215364
 51
180.0
  0
ARC
  5
B5
330
1F
100
AcDbEntity
  8
0
  6
Continuous
 62
     7
370
    25
100
AcDbCircle
 10
-9079.0179086539
 20
708.0592391682
 30
0.0
 40
9453.625000000091
100
AcDbArc
 50
0.0
 51
0.8333784636
  0
LINE
  5
B6
330
1F
100
AcDbEntity
  8
0
  6
Continuous
 62
     7
370
    25
100
AcDbLine
 10
373.6070913462
 20
545.5592391682
 30
0.0
 11
-112.3929086538
 21
545.5592391682
 31
0.0
  0
LINE
  5
B7
330
1F
100
AcDbEntity
  8
0
  6
Continuous
 62
     7
370
    25
100
AcDbLine
 10
373.6070913462
 20
845.5592391682
 30
0.0
 11
-112.3929086538
 21
845.5592391682
 31
0.0
  0
LINE
  5
B8
330
1F
100
AcDbEntity
  8
0
  6
Continuous
 62
     1
370
    25
100
AcDbLine
 10
374.6070913462
 20
683.0592391682
 30
0.0
 11
-113.3929086538
 21
683.0592391682
 31
0.0
  0
LINE
  5
B9
330
1F
100
AcDbEntity
  8
0
  6
Continuous
 62
     1
370
    25
100
AcDbLine
 10
374.6070913462
 20
708.0592391682
 30
0.0
 11
-113.3929086538
 21
708.0592391682
 31
0.0
  0
ARC
  5
BA
330
1F
100
AcDbEntity
  8
0
  6
Continuous
 62
     7
370
    25
100
AcDbCircle
 10
-507.6598315926
 20
9305.5199519232
 30
0.0
 40
9453.625000000091
100
AcDbArc
 50
270.0
 51
270.8333784636
  0
ARC
  5
BB
330
1F
100
AcDbEntity
  8
0
  6
Continuous
 62
     7
370
    25
100
AcDbCircle
 10
-507.6598315926
 20
-9113.730048077
 30
0.0
 40
9453.625000000095
100
AcDbArc
 50
89.2812432705
 51
90.0
  0
LWPOLYLINE
  5
BC
330
1F
100
AcDbEntity
  8
0
  6
Continuous
 62
     7
370
    25
100
AcDbPolyline
 90
        9
 70
   128
 43
0.0
 10
-370.1598315926
 20
338.8949519231
 10
-370.7960403461
 20
338.9041849436
 10
-371.4322497197
 20
338.913375144
 10
-372.0684597103
 20
338.9225225244
 10
-372.7046703151
 20
338.9316270847
 10
-373.3408815313
 20
338.9406888249
 10
-373.9770933559
 20
338.9497077448
 10
-374.6133057862
 20
338.9586838446
 10
-375.2495188191
 20
338.9676171241
  0
LINE
  5
BD
330
1F
100
AcDbEntity
  8
0
  6
Continuous
 62
     7
370
    25
100
AcDbLine
 10
-507.6598315926
 20
339.8949519231
 30
0.0
 11
-532.6598315926
 21
339.8949519231
 31
0.0
  0
LINE
  5
BE
330
1F
100
AcDbEntity
  8
0
  6
Continuous
 62
     7
370
    25
100
AcDbLine
 10
-532.6598315926
 20
-148.1050480769
 30
0.0
 11
-507.6598315926
 21
-148.1050480769
 31
0.0
  0
ARC
  5
BF
330
1F
100
AcDbEntity
  8
0
  6
Continuous
 62
     7
370
    25
100
AcDbCircle
 10
-532.6598315926
 20
9305.5199519232
 30
0.0
 40
9453.625000000091
100
AcDbArc
 50
269.1666215364
 51
270.0
  0
LWPOLYLINE
  5
C0
330
1F
100
AcDbEntity
  8
0
  6
Continuous
 62
     7
370
    25
100
AcDbPolyline
 90
        9
 70
   128
 43
0.0
 10
-665.0721983542
 20
338.9675883522
 10
-665.7081546369
 20
338.9586585483
 10
-666.3441103174
 20
338.9496859587
 10
-666.9800653928
 20
338.9406705833
 10
-667.6160198602
 20
338.9316124224
 10
-668.2519737168
 20
338.9225114758
 10
-668.8879269596
 20
338.9133677437
 10
-669.5238795859
 20
338.9041812261
 10
-670.1598315926
 20
338.8949519231
  0
ARC
  5
C1
330
1F
100
AcDbEntity
  8
0
  6
Continuous
 62
     7
370
    25
100
AcDbCircle
 10
-532.6598315926
 20
-9113.730048077
 30
0.0
 40
9453.625000000093
100
AcDbArc
 50
90.0
 51
90.7187695567
  0
LINE
  5
C2
330
1F
100
AcDbEntity
  8
0
  6
Continuous
 62
     7
370
    25
100
AcDbLine
 10
-375.1598315926
 20
338.9650617069
 30
0.0
 11
-375.1598315926
 21
341.5949519231
 31
0.0
  0
LINE
  5
C3
330
1F
100
AcDbEntity
  8
0
  6
Continuous
 62
     7
370
    25
100
AcDbLine
 10
-389.1598315926
 20
341.5949519231
 30
0.0
 11
-389.1598315926
 21
339.1485643427
 31
0.0
  0
LINE
  5
C4
330
1F
100
AcDbEntity
  8
0
  6
Continuous
 62
     7
370
    25
100
AcDbLine
 10
-651.1598315926
 20
339.1484840461
 30
0.0
 11
-651.1598315926
 21
341.5949519231
 31
0.0
  0
LINE
  5
C5
330
1F
100
AcDbEntity
  8
0
  6
Continuous
 62
     7
370
    25
100
AcDbLine
 10
-665.1598315926
 20
341.5949519231
 30
0.0
 11
-665.1598315926
 21
338.9650908538
 31
0.0
  0
LINE
  5
C6
330
1F
100
AcDbEntity
  8
0
  6
Continuous
 62
     7
370
    25
100
AcDbLine
 10
-370.1598315926
 20
338.8949519231
 30
0.0
 11
-370.1598315926
 21
-147.1050480769
 31
0.0
  0
SPLINE
  5
C7
330
1F
100
AcDbEntity
  8
0
  6
Continuous
 62
     7
370
    25
100
AcDbSpline
210
0.0
220
0.0
230
1.0
 70
     8
 71
     3
 72
    10
 73
     6
 74
     0
 42
0.00000001
 43
0.00000001
 40
0.0
 40
0.0
 40
0.0
 40
0.0
 40
0.4265734459049398
 40
0.8531563107750418
 40
1.0
 40
1.0
 40
1.0
 40
1.0
 10
-387.0851292268126
 20
339.0751302822763
 30
0.0
 10
-387.5797159159216
 20
339.0924529250565
 30
0.0
 10
-388.5689002148729
 20
339.1270985931098
 30
0.0
 10
-389.1884364221028
 20
339.1534540230546
 30
0.0
 10
-389.0943442091855
 20
339.1495526954997
 30
0.0
 10
-389.0702489740183
 20
339.1485536393399
 30
0.0
  0
SPLINE
  5
C8
330
1F
100
AcDbEntity
  8
0
  6
Continuous
 62
     7
370
    25
100
AcDbSpline
210
0.0
220
0.0
230
1.0
 70
     8
 71
     3
 72
    15
 73
    11
 74
     0
 42
0.00000001
 43
0.00000001
 40
0.0
 40
0.0
 40
0.0
 40
0.0
 40
0.0494044458001887
 40
0.1927948575639903
 40
0.3361930522360428
 40
0.4796013843975441
 40
0.6229868995338513
 40
0.7663438892682886
 40
0.9097287251358277
 40
1.0
 40
1.0
 40
1.0
 40
1.0
 10
-375.2495149168515
 20
338.9650579052299
 30
0.0
 10
-375.2249729455765
 20
338.9654134084324
 30
0.0
 10
-375.1292008793248
 20
338.9668007165619
 30
0.0
 10
-375.7793502527357
 20
338.9572218803925
 30
0.0
 10
-377.1317695225894
 20
338.9431583124246
 30
0.0
 10
-379.1037068264973
 20
338.9360543046
 30
0.0
 10
-381.4080465053337
 20
338.9484600881183
 30
0.0
 10
-383.791593323637
 20
338.9844882221818
 30
0.0
 10
-385.7476702670509
 20
339.0325477366089
 30
0.0
 10
-386.712409503983
 20
339.0632634847924
 30
0.0
 10
-387.0851292268126
 20
339.0751302822763
 30
0.0
  0
LINE
  5
C9
330
1F
100
AcDbEntity
  8
0
  6
Continuous
 62
     7
370
    25
100
AcDbLine
 10
-670.1598315926
 20
338.8949519231
 30
0.0
 11
-670.1598315926
 21
-147.1050480769
 31
0.0
  0
SPLINE
  5
CA
330
1F
100
AcDbEntity
  8
0
  6
Continuous
 62
     7
370
    25
100
AcDbSpline
210
0.0
220
0.0
230
1.0
 70
     8
 71
     3
 72
    10
 73
     6
 74
     0
 42
0.00000001
 43
0.00000001
 40
0.0
 40
0.0
 40
0.0
 40
0.0
 40
0.4292001509554644
 40
0.8584008379473704
 40
1.0
 40
1.0
 40
1.0
 40
1.0
 10
-663.1088574278508
 20
338.9444759677137
 30
0.0
 10
-663.6003711916671
 20
338.9486854555062
 30
0.0
 10
-664.5833993331607
 20
338.9571044363485
 30
0.0
 10
-665.1932153035104
 20
338.9668906230701
 30
0.0
 10
-665.0961347291179
 20
338.9654451346887
 30
0.0
 10
-665.0720518075675
 20
338.9650865502497
 30
0.0
  0
SPLINE
  5
CB
330
1F
100
AcDbEntity
  8
0
  6
Continuous
 62
     7
370
    25
100
AcDbSpline
210
0.0
220
0.0
230
1.0
 70
     8
 71
     3
 72
    15
 73
    11
 74
     0
 42
0.00000001
 43
0.00000001
 40
0.0
 40
0.0
 40
0.0
 40
0.0
 40
0.0515146120248502
 40
0.1945100980408521
 40
0.3375464642138407
 40
0.4806899016413047
 40
0.6238807203080556
 40
0.7670208505008186
 40
0.9100950798148754
 40
1.0
 40
1.0
 40
1.0
 40
1.0
 10
-651.251300615512
 20
339.1484751827788
 30
0.0
 10
-651.2268151981247
 20
339.149479635406
 30
0.0
 10
-651.1343625764432
 20
339.1532722715398
 30
0.0
 10
-651.7944214792587
 20
339.1260565554482
 30
0.0
 10
-653.1567145388857
 20
339.0758482017021
 30
0.0
 10
-655.1345011047587
 20
339.0164352951524
 30
0.0
 10
-657.4426683148494
 20
338.9678614413435
 30
0.0
 10
-659.8264508686123
 20
338.9409136546911
 30
0.0
 10
-661.7783270288519
 20
338.937301371512
 30
0.0
 10
-662.7383800938566
 20
338.9424782491533
 30
0.0
 10
-663.1088574278508
 20
338.9444759677138
 30
0.0
  0
LINE
  5
CC
330
1F
100
AcDbEntity
  8
0
  6
Continuous
 62
     7
370
    25
100
AcDbLine
 10
-375.1598315926
 20
341.5949519231
 30
0.0
 11
-389.1598315926
 21
341.5949519231
 31
0.0
  0
LINE
  5
CD
330
1F
100
AcDbEntity
  8
0
  6
Continuous
 62
     7
370
    25
100
AcDbLine
 10
-651.1598315926
 20
341.5949519231
 30
0.0
 11
-665.1598315926
 21
341.5949519231
 31
0.0
  0
LINE
  5
CE
330
1F
100
AcDbEntity
  8
0
  6
Continuous
 62
     1
370
    25
100
AcDbLine
 10
-507.6598315926
 20
339.8949519231
 30
0.0
 11
-507.6598315926
 21
-148.1050480769
 31
0.0
  0
LINE
  5
CF
330
1F
100
AcDbEntity
  8
0
  6
Continuous
 62
     1
370
    25
100
AcDbLine
 10
-532.6598315926
 20
339.8949519231
 30
0.0
 11
-532.6598315926
 21
-148.1050480769
 31
0.0
  0
ARC
  5
D0
330
1F
100
AcDbEntity
  8
0
  6
Continuous
 62
     7
370
    25
100
AcDbCircle
 10
-9079.0179086539
 20
-532.3253232059
 30
0.0
 40
9453.625000000091
100
AcDbArc
 50
0.0
 51
0.8333784636
  0
ARC
  5
D1
330
1F
100
AcDbEntity
  8
0
  6
Continuous
 62
     7
370
    25
100
AcDbCircle
 10
9340.2320913462
 20
-532.3253232059
 30
0.0
 40
9453.625000000091
100
AcDbArc
 50
179.1666215364
 51
180.0
  0
LINE
  5
D2
330
1F
100
AcDbEntity
  8
0
  6
Continuous
 62
     7
370
    25
100
AcDbLine
 10
-113.3929086538
 20
-532.3253232059
 30
0.0
 11
-113.3929086538
 21
-557.3253232059
 31
0.0
  0
LINE
  5
D3
330
1F
100
AcDbEntity
  8
0
  6
Continuous
 62
     7
370
    25
100
AcDbLine
 10
374.6070913462
 20
-557.3253232059
 30
0.0
 11
374.6070913462
 21
-532.3253232059
 31
0.0
  0
ARC
  5
D4
330
1F
100
AcDbEntity
  8
0
  6
Continuous
 62
     7
370
    25
100
AcDbCircle
 10
-9079.0179086539
 20
-557.3253232059
 30
0.0
 40
9453.625000000091
100
AcDbArc
 50
359.1666215364
 51
0.0
  0
ARC
  5
D5
330
1F
100
AcDbEntity
  8
0
  6
Continuous
 62
     7
370
    25
100
AcDbCircle
 10
9340.2320913462
 20
-557.3253232059
 30
0.0
 40
9453.625000000091
100
AcDbArc
 50
180.0
 51
180.8333784636
  0
CIRCLE
  5
D6
330
1F
100
AcDbEntity
  8
0
  6
Continuous
 62
     7
370
    25
100
AcDbCircle
 10
130.6070913462
 20
-406.8253232059
 30
0.0
 40
7.0
  0
CIRCLE
  5
D7
330
1F
100
AcDbEntity
  8
0
  6
Continuous
 62
     7
370
    25
100
AcDbCircle
 10
130.6070913462
 20
-406.8253232059
 30
0.0
 40
5.0
  0
CIRCLE
  5
D8
330
1F
100
AcDbEntity
  8
0
  6
Continuous
 62
     7
370
    25
100
AcDbCircle
 10
130.6070913462
 20
-682.8253232059
 30
0.0
 40
7.0
  0
CIRCLE
  5
D9
330
1F
100
AcDbEntity
  8
0
  6
Continuous
 62
     7
370
    25
100
AcDbCircle
 10
130.6070913462
 20
-682.8253232059
 30
0.0
 40
5.0
  0
LINE
  5
DA
330
1F
100
AcDbEntity
  8
0
  6
Continuous
 62
     7
370
    25
100
AcDbLine
 10
-112.3929086538
 20
-394.8253232059
 30
0.0
 11
373.6070913462
 21
-394.8253232059
 31
0.0
  0
LINE
  5
DB
330
1F
100
AcDbEntity
  8
0
  6
Continuous
 62
     7
370
    25
100
AcDbLine
 10
-112.3929086538
 20
-694.8253232059
 30
0.0
 11
373.6070913462
 21
-694.8253232059
 31
0.0
  0
LINE
  5
DC
330
1F
100
AcDbEntity
  8
0
  6
Continuous
 62
     1
370
    25
100
AcDbLine
 10
-113.3929086538
 20
-532.3253232059
 30
0.0
 11
374.6070913462
 21
-532.3253232059
 31
0.0
  0
LINE
  5
DD
330
1F
100
AcDbEntity
  8
0
  6
Continuous
 62
     1
370
    25
100
AcDbLine
 10
-113.3929086538
 20
-557.3253232059
 30
0.0
 11
374.6070913462
 21
-557.3253232059
 31
0.0
  0
INSERT
  5
E9
330
1F
100
AcDbEntity
  8
FORMAT
 62
     7
100
AcDbBlockReference
  2
SW_CENTERMARKSYMBOL_1
 10
130.6070913462
 20
-406.8253232059
 30
0.0
  0
INSERT
  5
F5
330
1F
100
AcDbEntity
  8
FORMAT
 62
     7
100
AcDbBlockReference
  2
SW_CENTERMARKSYMBOL_2
 10
130.6070913462
 20
-682.8253232059
 30
0.0
  0
SPLINE
  5
F6
330
1F
100
AcDbEntity
  8
0
  6
Continuous
 62
     7
370
    25
100
AcDbSpline
210
0.0
220
0.0
230
1.0
 70
     8
 71
     3
 72
    10
 73
     6
 74
     0
 42
0.00000001
 43
0.00000001
 40
0.0
 40
0.0
 40
0.0
 40
0.0
 40
0.3395228043885934
 40
0.7343608387632771
 40
1.0
 40
1.0
 40
1.0
 40
1.0
 10
669.3188798278169
 20
-333.9824180633111
 30
0.0
 10
658.1810854200307
 20
-340.4313235236586
 30
0.0
 10
634.0909214087984
 20
-354.3797934401169
 30
0.0
 10
601.4404197139015
 20
-373.6371530305679
 30
0.0
 10
579.9850877194473
 20
-386.5353524256058
 30
0.0
 10
571.3559080400697
 20
-391.7229151325818
 30
0.0
  0
SPLINE
  5
F7
330
1F
100
AcDbEntity
  8
0
  6
Continuous
 62
     7
370
    25
100
AcDbSpline
210
0.0
220
0.0
230
1.0
 70
     8
 71
     3
 72
    11
 73
     7
 74
     0
 42
0.00000001
 43
0.00000001
 40
0.0
 40
0.0
 40
0.0
 40
0.0
 40
0.154864621509909
 40
0.54976574133389
 40
0.9446552965019122
 40
1.0
 40
1.0
 40
1.0
 40
1.0
 10
814.2875356941578
 20
-812.5374202899632
 30
0.0
 10
819.4272329190504
 20
-809.7025045510371
 30
0.0
 10
837.6730364313394
 20
-799.6386207689683
 30
0.0
 10
868.8552570641524
 20
-782.0350958763502
 30
0.0
 10
896.7109896290638
 20
-766.2113682909545
 30
0.0
 10
911.466478304648
 20
-757.6353410108136
 30
0.0
 10
913.280285517229
 20
-756.5811393860481
 30
0.0
  0
LINE
  5
F8
330
1F
100
AcDbEntity
  8
0
  6
Continuous
 62
     7
370
    25
100
AcDbLine
 10
686.9872406813
 20
-323.7607120175
 30
0.0
 11
669.3095711516
 21
-333.9658134153
 31
0.0
  0
LINE
  5
F9
330
1F
100
AcDbEntity
  8
0
  6
Continuous
 62
     7
370
    25
100
AcDbLine
 10
913.2897419148
 20
-756.5976582571
 30
0.0
 11
930.9674114445
 21
-746.3925568593
 31
0.0
  0
SPLINE
  5
FA
330
1F
100
AcDbEntity
  8
0
  6
Continuous
 62
     7
370
    25
100
AcDbSpline
210
0.0
220
0.0
230
1.0
 70
     8
 71
     3
 72
    11
 73
     7
 74
     0
 42
0.00000001
 43
0.00000001
 40
0.0
 40
0.0
 40
0.0
 40
0.0
 40
0.1548731663830626
 40
0.5497695916181223
 40
0.9446544523340091
 40
0.9999999999999999
 40
0.9999999999999999
 40
0.9999999999999999
 40
0.9999999999999999
 10
785.9904804623136
 20
-267.8203786490455
 30
0.0
 10
780.8504384237402
 20
-270.6554842939514
 30
0.0
 10
762.6042897948868
 20
-280.719557425503
 30
0.0
 10
731.4217251645799
 20
-298.3232737303267
 30
0.0
 10
703.5659436209311
 20
-314.1470303933784
 30
0.0
 10
688.8104057899995
 20
-322.7230864128078
 30
0.0
 10
686.9965493574805
 20
-323.7773166655253
 30
0.0
  0
SPLINE
  5
FB
330
1F
100
AcDbEntity
  8
0
  6
Continuous
 62
     7
370
    25
100
AcDbSpline
210
0.0
220
0.0
230
1.0
 70
     8
 71
     3
 72
    10
 73
     6
 74
     0
 42
0.00000001
 43
0.00000001
 40
0.0
 40
0.0
 40
0.0
 40
0.0
 40
0.3395222154878151
 40
0.7343578181744002
 40
1.0
 40
1.0
 40
1.0
 40
1.0
 10
930.9579550468918
 20
-746.3760379882641
 30
0.0
 10
942.0957987683962
 20
-739.9271040593345
 30
0.0
 10
966.1860121370265
 20
-725.9786057473893
 30
0.0
 10
998.8367146756527
 20
-706.7211271665813
 30
0.0
 10
1020.292197785038
 20
-693.822836583655
 30
0.0
 10
1028.921528670874
 20
-688.6351828387229
 30
0.0
  0
LINE
  5
FC
330
1F
100
AcDbEntity
  8
0
  6
Continuous
 62
     7
370
    25
100
AcDbLine
 10
709.5577554943
 20
-397.9443022014
 30
0.0
 11
709.5577554943
 21
-395.8872673727
 31
0.0
  0
LINE
  5
FD
330
1F
100
AcDbEntity
  8
0
  6
Continuous
 62
     7
370
    25
100
AcDbLine
 10
695.5577554943
 20
-395.8872673727
 30
0.0
 11
695.5577554943
 21
-398.0509238994
 31
0.0
  0
LINE
  5
FE
330
1F
100
AcDbEntity
  8
0
  6
Continuous
 62
     7
370
    25
100
AcDbLine
 10
904.7192271018
 20
-285.387146585
 30
0.0
 11
904.7192271018
 21
-283.2229479412
 31
0.0
  0
LINE
  5
FF
330
1F
100
AcDbEntity
  8
0
  6
Continuous
 62
     7
370
    25
100
AcDbLine
 10
890.7192271018
 20
-283.2229479412
 30
0.0
 11
890.7192271018
 21
-285.2807066408
 31
0.0
  0
LWPOLYLINE
  5
100
330
1F
100
AcDbEntity
  8
0
  6
Continuous
 62
     7
370
    25
100
AcDbPolyline
 90
      166
 70
   128
 43
0.0
 10
522.2455262917
 20
-502.2162079375
 10
522.3700926155
 20
-494.7341507553
 10
522.7436109775
 20
-487.4067630569
 10
523.3655398119
 20
-480.2446688538
 10
524.2349773813
 20
-473.2582524979
 10
525.3506630843
 20
-466.4576436252
 10
526.7109792834
 20
-459.8527024683
 10
528.3139536501
 20
-453.4530055603
 10
530.1572620248
 20
-447.2678318502
 10
532.2382317865
 20
-441.3061492483
 10
534.5538457282
 20
-435.5766016246
 10
537.1007464309
 20
-430.0874962753
 10
539.8752411321
 20
-424.8467918785
 10
542.8733070797
 20
-419.8620869544
 10
546.0905973647
 20
-415.1406088488
 10
549.5224472239
 20
-410.6892032534
 10
553.1638808029
 20
-406.5143242809
 10
557.0096183712
 20
-402.6220251065
 10
561.054083977
 20
-399.0179491921
 10
565.2914135319
 20
-395.7073221031
 10
569.715463313
 20
-392.6949439323
 10
574.3198188711
 20
-389.98518234
 10
579.0978043309
 20
-387.5819662216
 10
584.0424920702
 20
-385.4887800107
 10
589.1467127644
 20
-383.708658627
 10
594.4030657817
 20
-382.2441830766
 10
599.8039299125
 20
-381.0974767088
 10
605.3414744203
 20
-380.2702021384
 10
611.0076703949
 20
-379.7635588343
 10
616.7943023938
 20
-379.578281381
 10
622.6929803539
 20
-379.7146384129
 10
628.6951517559
 20
-380.1724322255
 10
634.7921140253
 20
-380.9509990615
 10
640.9750271495
 20
-382.0492100733
 10
647.2349264957
 20
-383.4654729601
 10
653.5627358082
 20
-385.197734276
 10
659.9492803685
 20
-387.2434824078
 10
666.3853002975
 20
-389.5997512162
 10
672.8614639817
 20
-392.2631243366
 10
679.3683816027
 20
-395.2297401328
 10
685.8966187522
 20
-398.4952972954
 10
692.4367101104
 20
-402.0550610787
 10
698.97917317
 20
-405.9038701656
 10
705.514521985
 20
-410.0361441507
 10
712.0332809245
 20
-414.445891632
 10
718.5259984112
 20
-419.1267188971
 10
724.9832606255
 20
-424.0718391939
 10
731.3957051544
 20
-429.2740825709
 10
737.7540345665
 20
-434.7259062723
 10
744.0490298919
 20
-440.4194056752
 10
750.2715639893
 20
-446.3463257496
 10
756.412614779
 20
-452.4980730281
 10
762.4632783246
 20
-458.8657280652
 10
768.4147817423
 20
-465.4400583699
 10
774.2584959211
 20
-472.2115317917
 10
779.9859480342
 20
-479.1703303415
 10
785.5888338235
 20
-486.3063644267
 10
791.0590296403
 20
-493.6092874802
 10
796.3886042236
 20
-501.0685109616
 10
801.5698301998
 20
-508.6732197099
 10
806.5951952865
 20
-516.4123876246
 10
811.4574131848
 20
-524.274793652
 10
816.1494341435
 20
-532.2490380551
 10
820.6644551809
 20
-540.3235589417
 10
824.9959299481
 20
-548.4866490286
 10
829.1375782207
 20
-556.7264726155
 10
833.0833950047
 20
-565.0310827459
 10
836.8276592431
 20
-573.3884385292
 10
840.3649421105
 20
-581.7864225983
 10
843.690114885
 20
-590.2128586792
 10
846.798356384
 20
-598.6555292453
 10
849.6851599545
 20
-607.1021932312
 10
852.3463400073
 20
-615.5406037817
 10
854.7780380856
 20
-623.9585260083
 10
856.9767284598
 20
-632.3437547285
 10
858.939223239
 20
-640.6841321622
 10
860.6626769933
 20
-648.9675655596
 10
862.1445908797
 20
-657.1820447341
 10
863.3828162647
 20
-665.3156594762
 10
864.3755578398
 20
-673.3566168222
 10
865.1213762246
 20
-681.2932581525
 10
865.6191900538
 20
-689.1140760961
 10
865.8682775449
 20
-696.8077312146
 10
865.8682775449
 20
-704.3630684435
 10
865.6191900538
 20
-711.7691332662
 10
865.1213762246
 20
-719.0151875968
 10
864.3755578398
 20
-726.0907253492
 10
863.3828162647
 20
-732.98548767
 10
862.1445908797
 20
-739.689477813
 10
860.6626769933
 20
-746.1929756336
 10
858.939223239
 20
-752.4865516814
 10
856.9767284598
 20
-758.5610808731
 10
854.7780380856
 20
-764.4077557218
 10
852.3463400072
 20
-770.0180991082
 10
849.6851599545
 20
-775.3839765705
 10
846.798356384
 20
-780.4976080996
 10
843.690114885
 20
-785.3515794185
 10
840.3649421105
 20
-789.9388527328
 10
836.8276592431
 20
-794.2527769349
 10
833.0833950047
 20
-798.2870972469
 10
829.1375782207
 20
-802.0359642902
 10
824.9959299481
 20
-805.493942566
 10
820.6644551809
 20
-808.6560183363
 10
816.1494341435
 20
-811.5176068936
 10
811.4574131848
 20
-814.0745592079
 10
806.5951952865
 20
-816.323167943
 10
801.5698301998
 20
-818.2601728311
 10
796.3886042236
 20
-819.8827654003
 10
791.0590296403
 20
-821.1885930465
 10
785.5888338235
 20
-822.1757624445
 10
779.9859480342
 20
-822.8428422929
 10
774.2584959211
 20
-823.1888653899
 10
768.4147817423
 20
-823.2133300349
 10
762.4632783246
 20
-822.9162007567
 10
756.412614779
 20
-822.2979083641
 10
750.2715639893
 20
-821.3593493222
 10
744.0490298919
 20
-820.1018844517
 10
737.7540345665
 20
-818.5273369566
 10
731.3957051544
 20
-816.6379897801
 10
724.9832606255
 20
-814.4365822951
 10
718.5259984112
 20
-811.9263063319
 10
712.0332809245
 20
-809.1108015507
 10
705.514521985
 20
-805.9941501643
 10
698.97917317
 20
-802.5808710193
 10
692.4367101104
 20
-798.875913044
 10
685.8966187522
 20
-794.8846480733
 10
679.3683816027
 20
-790.6128630599
 10
672.8614639817
 20
-786.0667516837
 10
666.3853002975
 20
-781.2529053716
 10
659.9492803685
 20
-776.1783037404
 10
653.5627358082
 20
-770.8503044775
 10
647.2349264957
 20
-765.2766326723
 10
640.9750271495
 20
-759.4653696163
 10
634.7921140253
 20
-753.4249410851
 10
628.6951517559
 20
-747.1641051228
 10
622.6929803539
 20
-740.6919393429
 10
616.7943023938
 20
-734.017827767
 10
611.0076703949
 20
-727.151447219
 10
605.3414744203
 20
-720.1027532941
 10
599.8039299125
 20
-712.8819659248
 10
594.4030657817
 20
-705.4995545623
 10
589.1467127644
 20
-697.9662229973
 10
584.0424920702
 20
-690.2928938405
 10
579.0978043309
 20
-682.4906926856
 10
574.3198188711
 20
-674.5709319783
 10
569.715463313
 20
-666.5450946145
 10
565.2914135319
 20
-658.4248172911
 10
561.054083977
 20
-650.221873634
 10
557.0096183712
 20
-641.9481571271
 10
553.1638808029
 20
-633.6156638686
 10
549.5224472239
 20
-625.236475177
 10
546.0905973647
 20
-616.8227400748
 10
542.8733070797
 20
-608.3866576736
 10
539.8752411321
 20
-599.9404594864
 10
537.1007464309
 20
-591.4963916931
 10
534.5538457282
 20
-583.0666973847
 10
532.2382317865
 20
-574.6635988121
 10
530.1572620248
 20
-566.2992796648
 10
528.3139536501
 20
-557.9858674061
 10
526.7109792834
 20
-549.7354156888
 10
525.3506630843
 20
-541.5598868793
 10
524.2349773813
 20
-533.4711347128
 10
523.3655398119
 20
-525.4808871065
 10
522.7436109775
 20
-517.6007291556
 10
522.3700926155
 20
-509.8420863358
 10
522.2455262917
 20
-502.2162079375
  0
SPLINE
  5
101
330
1F
100
AcDbEntity
  8
0
  6
Continuous
 62
     7
370
    25
100
AcDbSpline
210
0.0
220
0.0
230
1.0
 70
     8
 71
     3
 72
    12
 73
     8
 74
     0
 42
0.00000001
 43
0.00000001
 40
0.0
 40
0.0
 40
0.0
 40
0.0
 40
0.214726190898779
 40
0.4294526499732867
 40
0.6441667204613697
 40
0.858868195694394
 40
1.0
 40
1.0
 40
1.0
 40
1.0
 10
702.5587759631703
 20
-402.0925031028638
 30
0.0
 10
701.772063592603
 20
-402.0443174066525
 30
0.0
 10
700.1986378689281
 20
-401.9479459540498
 30
0.0
 10
698.0967735619467
 20
-401.2432839301465
 30
0.0
 10
696.5286464741409
 20
-400.2190717184199
 30
0.0
 10
695.6395782021032
 20
-399.0953289337979
 30
0.0
 10
695.6450454839866
 20
-398.3455662857975
 30
0.0
 10
695.6472139359026
 20
-398.0481928769627
 30
0.0
  0
SPLINE
  5
102
330
1F
100
AcDbEntity
  8
0
  6
Continuous
 62
     7
370
    25
100
AcDbSpline
210
0.0
220
0.0
230
1.0
 70
     8
 71
     3
 72
    13
 73
     9
 74
     0
 42
0.00000001
 43
0.00000001
 40
0.0
 40
0.0
 40
0.0
 40
0.0
 40
0.0061743232534261
 40
0.2209208917117787
 40
0.4357385424267061
 40
0.6504801493072463
 40
0.8651228904080144
 40
1.0
 40
1.0
 40
1.0
 40
1.0
 10
709.546735766615
 20
-397.9453208210027
 30
0.0
 10
709.5503938240626
 20
-397.9585416837809
 30
0.0
 10
709.6812812557853
 20
-398.4315918747598
 30
0.0
 10
709.2083043070171
 20
-399.3977956747977
 30
0.0
 10
708.0998407134622
 20
-400.6367060547713
 30
0.0
 10
706.2757984784786
 20
-401.5640090535082
 30
0.0
 10
704.3293289156546
 20
-402.0338483885637
 30
0.0
 10
703.0517746485259
 20
-402.0761710880549
 30
0.0
 10
702.5587759631703
 20
-402.0925031028638
 30
0.0
  0
LWPOLYLINE
  5
103
330
1F
100
AcDbEntity
  8
0
  6
Continuous
 62
     7
370
    25
100
AcDbPolyline
 90
      151
 70
   128
 43
0.0
 10
552.1561431359
 20
-519.4832395026
 10
552.2806278699
 20
-512.6925317248
 10
552.6538636835
 20
-506.0574641706
 10
553.2751957941
 20
-499.5896770029
 10
554.1435341741
 20
-493.3005169184
 10
555.257355463
 20
-487.2010172408
 10
556.6147056396
 20
-481.3018785652
 10
558.2132034507
 20
-475.6134499854
 10
560.0500445878
 20
-470.1457109381
 10
562.1220066075
 20
-464.9082536954
 10
564.4254545842
 20
-459.9102665371
 10
566.9563474875
 20
-455.1605176311
 10
569.7102452713
 20
-450.6673396507
 10
572.6823166631
 20
-446.4386151571
 10
575.8673476397
 20
-442.48176277
 10
579.2597505745
 20
-438.8037241528
 10
582.8535740401
 20
-435.4109518353
 10
586.6425132488
 20
-432.3093978929
 10
590.6199211139
 20
-429.5045035051
 10
594.7788199103
 20
-427.0011894098
 10
599.1119135164
 20
-424.8038472706
 10
603.6116002136
 20
-422.9163319722
 10
608.2699860225
 20
-421.3419548578
 10
613.0788985514
 20
-420.0834779199
 10
618.0299013336
 20
-419.1431089547
 10
623.114308628
 20
-418.5224976889
 10
628.3232006563
 20
-418.2227328855
 10
633.6474392521
 20
-418.2443404338
 10
639.0776838916
 20
-418.5872824269
 10
644.6044080805
 20
-419.2509572279
 10
650.2179160666
 20
-420.2342005259
 10
655.9083598494
 20
-421.5352873778
 10
661.6657564569
 20
-423.1519352352
 10
667.4800054591
 20
-425.0813079485
 10
673.3409066874
 20
-427.3200207424
 10
679.2381781297
 20
-429.8641461538
 10
685.1614739679
 20
-432.7092209223
 10
691.1004027283
 20
-435.8502538199
 10
697.0445455118
 20
-439.2817344078
 10
702.9834742722
 20
-442.9976427028
 10
708.9067701104
 20
-446.9914597391
 10
714.8040415527
 20
-451.2561790046
 10
720.664942781
 20
-455.7843187325
 10
726.4791917832
 20
-460.5679350271
 10
732.2365883907
 20
-465.5986357999
 10
737.9270321735
 20
-470.8675954922
 10
743.5405401596
 20
-476.3655705585
 10
749.0672643485
 20
-482.0829156821
 10
754.497508988
 20
-488.009600697
 10
759.8217475838
 20
-494.1352281838
 10
765.0306396121
 20
-500.4490517103
 10
770.1150469065
 20
-506.9399946847
 10
775.0660496887
 20
-513.5966697872
 10
779.8749622176
 20
-520.4073989479
 10
784.5333480264
 20
-527.3602338335
 10
789.0330347237
 20
-534.442976809
 10
793.3661283298
 20
-541.6432023365
 10
797.5250271262
 20
-548.9482787738
 10
801.5024349913
 20
-556.3453905345
 10
805.2913742
 20
-563.821560571
 10
808.8851976656
 20
-571.3636731406
 10
812.2776006004
 20
-578.9584968152
 10
815.462631577
 20
-586.5927076932
 10
818.4347029688
 20
-594.2529127746
 10
821.1886007526
 20
-601.9256734568
 10
823.7194936559
 20
-609.5975291103
 10
826.0229416326
 20
-617.2550206933
 10
828.0949036523
 20
-624.8847143637
 10
829.9317447894
 20
-632.473225046
 10
831.5302426004
 20
-640.0072399141
 10
832.8875927771
 20
-647.4735417457
 10
834.001414066
 20
-654.8590321103
 10
834.869752446
 20
-662.1507543483
 10
835.4910845566
 20
-669.3359163011
 10
835.8643203702
 20
-676.401912753
 10
835.9888051042
 20
-683.3363475454
 10
835.8643203702
 20
-690.1270553232
 10
835.4910845566
 20
-696.7621228774
 10
834.869752446
 20
-703.229910045
 10
834.001414066
 20
-709.5190701296
 10
832.8875927771
 20
-715.6185698072
 10
831.5302426004
 20
-721.5177084828
 10
829.9317447894
 20
-727.2061370626
 10
828.0949036523
 20
-732.6738761099
 10
826.0229416326
 20
-737.9113333526
 10
823.7194936559
 20
-742.9093205109
 10
821.1886007526
 20
-747.6590694169
 10
818.4347029688
 20
-752.1522473972
 10
815.462631577
 20
-756.3809718908
 10
812.2776006004
 20
-760.337824278
 10
808.8851976656
 20
-764.0158628952
 10
805.2913742
 20
-767.4086352127
 10
801.5024349913
 20
-770.5101891551
 10
797.5250271262
 20
-773.3150835429
 10
793.3661283298
 20
-775.8183976382
 10
789.0330347237
 20
-778.0157397774
 10
784.5333480264
 20
-779.9032550758
 10
779.8749622176
 20
-781.4776321902
 10
775.0660496887
 20
-782.7361091281
 10
770.1150469065
 20
-783.6764780933
 10
765.0306396121
 20
-784.2970893591
 10
759.8217475838
 20
-784.5968541625
 10
754.497508988
 20
-784.5752466142
 10
749.0672643485
 20
-784.2323046211
 10
743.5405401596
 20
-783.56862982
 10
737.9270321735
 20
-782.5853865221
 10
732.2365883907
 20
-781.2842996702
 10
726.4791917832
 20
-779.6676518128
 10
720.664942781
 20
-777.7382790995
 10
714.8040415527
 20
-775.4995663056
 10
708.9067701104
 20
-772.9554408942
 10
702.9834742722
 20
-770.1103661257
 10
697.0445455118
 20
-766.969333228
 10
691.1004027283
 20
-763.5378526402
 10
685.1614739679
 20
-759.8219443452
 10
679.2381781297
 20
-755.8281273089
 10
673.3409066874
 20
-751.5634080434
 10
667.480005459
 20
-747.0352683154
 10
661.6657564569
 20
-742.2516520209
 10
655.9083598494
 20
-737.2209512481
 10
650.2179160666
 20
-731.9519915558
 10
644.6044080805
 20
-726.4540164895
 10
639.0776838916
 20
-720.7366713659
 10
633.6474392521
 20
-714.809986351
 10
628.3232006563
 20
-708.6843588642
 10
623.114308628
 20
-702.3705353377
 10
618.0299013336
 20
-695.8795923633
 10
613.0788985514
 20
-689.2229172608
 10
608.2699860225
 20
-682.4121881
 10
603.6116002136
 20
-675.4593532145
 10
599.1119135164
 20
-668.376610239
 10
594.7788199103
 20
-661.1763847115
 10
590.6199211138
 20
-653.8713082742
 10
586.6425132488
 20
-646.4741965135
 10
582.8535740401
 20
-638.998026477
 10
579.2597505745
 20
-631.4559139074
 10
575.8673476397
 20
-623.8610902328
 10
572.6823166631
 20
-616.2268793548
 10
569.7102452713
 20
-608.5666742734
 10
566.9563474875
 20
-600.8939135912
 10
564.4254545842
 20
-593.2220579377
 10
562.1220066075
 20
-585.5645663547
 10
560.0500445878
 20
-577.9348726843
 10
558.2132034507
 20
-570.3463620019
 10
556.6147056396
 20
-562.8123471339
 10
555.257355463
 20
-555.3460453023
 10
554.1435341741
 20
-547.9605549377
 10
553.2751957941
 20
-540.6688326997
 10
552.6538636835
 20
-533.4836707469
 10
552.2806278699
 20
-526.4176742949
 10
552.1561431359
 20
-519.4832395026
  0
LWPOLYLINE
  5
104
330
1F
100
AcDbEntity
  8
0
  6
Continuous
 62
     7
370
    25
100
AcDbPolyline
 90
       84
 70
   128
 43
0.0
 10
785.9703507619
 20
-267.788484424
 10
786.4518532271
 20
-267.5239655666
 10
791.2298386868
 20
-265.1207494482
 10
796.1745264261
 20
-263.0275632373
 10
801.2787471204
 20
-261.2474418536
 10
806.5351001377
 20
-259.7829663032
 10
811.9359642685
 20
-258.6362599354
 10
817.4735087763
 20
-257.808985365
 10
823.1397047509
 20
-257.3023420609
 10
828.9263367498
 20
-257.1170646076
 10
834.8250147098
 20
-257.2534216395
 10
840.8271861119
 20
-257.7112154521
 10
846.9241483812
 20
-258.4897822881
 10
853.1070615055
 20
-259.5879932999
 10
859.3669608517
 20
-261.0042561867
 10
865.6947701642
 20
-262.7365175026
 10
872.0813147245
 20
-264.7822656344
 10
878.5173346535
 20
-267.1385344428
 10
884.9934983376
 20
-269.8019075632
 10
891.5004159587
 20
-272.7685233594
 10
898.0286531082
 20
-276.034080522
 10
904.5687444663
 20
-279.5938443053
 10
911.1112075259
 20
-283.4426533922
 10
917.646556341
 20
-287.5749273773
 10
924.1653152805
 20
-291.9846748586
 10
930.6580327672
 20
-296.6655021237
 10
937.1152949815
 20
-301.6106224205
 10
943.5277395104
 20
-306.8128657975
 10
949.8860689225
 20
-312.2646894989
 10
956.1810642479
 20
-317.9581889018
 10
962.4035983453
 20
-323.8851089762
 10
968.544649135
 20
-330.0368562547
 10
974.5953126806
 20
-336.4045112918
 10
980.5468160983
 20
-342.9788415965
 10
986.3905302771
 20
-349.7503150183
 10
992.1179823902
 20
-356.7091135681
 10
997.7208681795
 20
-363.8451476533
 10
1003.1910639963
 20
-371.1480707068
 10
1008.5206385796
 20
-378.6072941881
 10
1013.7018645557
 20
-386.2120029365
 10
1018.7272296424
 20
-393.9511708512
 10
1023.5894475407
 20
-401.8135768786
 10
1028.2814684995
 20
-409.7878212817
 10
1032.7964895369
 20
-417.8623421683
 10
1037.1279643041
 20
-426.0254322552
 10
1041.2696125767
 20
-434.2652558421
 10
1045.2154293607
 20
-442.5698659725
 10
1048.959693599
 20
-450.9272217558
 10
1052.4969764665
 20
-459.3252058249
 10
1055.822149241
 20
-467.7516419058
 10
1058.93039074
 20
-476.1943124719
 10
1061.8171943105
 20
-484.6409764578
 10
1064.4783743632
 20
-493.0793870083
 10
1066.9100724415
 20
-501.4973092349
 10
1069.1087628157
 20
-509.8825379551
 10
1071.0712575949
 20
-518.2229153888
 10
1072.7947113493
 20
-526.5063487862
 10
1074.2766252357
 20
-534.7208279607
 10
1075.5148506207
 20
-542.8544427028
 10
1076.5075921957
 20
-550.8954000488
 10
1077.2534105805
 20
-558.8320413791
 10
1077.7512244097
 20
-566.6528593227
 10
1078.0003119009
 20
-574.3465144412
 10
1078.0003119009
 20
-581.9018516701
 10
1077.7512244097
 20
-589.3079164928
 10
1077.2534105805
 20
-596.5539708234
 10
1076.5075921957
 20
-603.6295085758
 10
1075.5148506207
 20
-610.5242708966
 10
1074.2766252357
 20
-617.2282610396
 10
1072.7947113493
 20
-623.7317588602
 10
1071.0712575949
 20
-630.025334908
 10
1069.1087628157
 20
-636.0998640996
 10
1066.9100724415
 20
-641.9465389484
 10
1064.4783743632
 20
-647.5568823348
 10
1061.8171943105
 20
-652.9227597971
 10
1058.93039074
 20
-658.0363913262
 10
1055.822149241
 20
-662.8903626451
 10
1052.4969764665
 20
-667.4776359594
 10
1048.959693599
 20
-671.7915601614
 10
1045.2154293607
 20
-675.8258804735
 10
1041.2696125767
 20
-679.5747475168
 10
1037.127964304
 20
-683.0327257926
 10
1032.7964895369
 20
-686.1948015629
 10
1028.9377527901
 20
-688.6659771417
  0
SPLINE
  5
105
330
1F
100
AcDbEntity
  8
0
  6
Continuous
 62
     7
370
    25
100
AcDbSpline
210
0.0
220
0.0
230
1.0
 70
     8
 71
     3
 72
    12
 73
     8
 74
     0
 42
0.00000001
 43
0.00000001
 40
0.0
 40
0.0
 40
0.0
 40
0.0
 40
0.2140507362313131
 40
0.4281061988150208
 40
0.6420440988897808
 40
0.8559144704662495
 40
1.0
 40
1.0
 40
1.0
 40
1.0
 10
897.753719408299
 20
-289.3214500760054
 30
0.0
 10
896.9668081974771
 20
-289.2645434843353
 30
0.0
 10
895.3929684004214
 20
-289.1507290444676
 30
0.0
 10
893.2857956601352
 20
-288.4380185641724
 30
0.0
 10
891.7087721228403
 20
-287.4214979798742
 30
0.0
 10
890.8072707831274
 20
-286.3103793182582
 30
0.0
 10
890.8066962405194
 20
-285.5741293772592
 30
0.0
 10
890.8064649738308
 20
-285.2777717469225
 30
0.0
  0
SPLINE
  5
106
330
1F
100
AcDbEntity
  8
0
  6
Continuous
 62
     7
370
    25
100
AcDbSpline
210
0.0
220
0.0
230
1.0
 70
     8
 71
     3
 72
    13
 73
     9
 74
     0
 42
0.00000001
 43
0.00000001
 40
0.0
 40
0.0
 40
0.0
 40
0.0
 40
0.0031747852113136
 40
0.2185281224894411
 40
0.4338471959110113
 40
0.649123433324399
 40
0.8644414867020574
 40
1.0
 40
1.0
 40
1.0
 40
1.0
 10
904.7134934723391
 20
-285.3876931647522
 30
0.0
 10
904.7154010750086
 20
-285.3943215805
 30
0.0
 10
904.8467059671747
 20
-285.8505714216799
 30
0.0
 10
904.3797971424475
 20
-286.7798587050901
 30
0.0
 10
903.2835441164012
 20
-287.972770026962
 30
0.0
 10
901.4675929388468
 20
-288.8531654933316
 30
0.0
 10
899.525331357275
 20
-289.2866599199417
 30
0.0
 10
898.2474278019395
 20
-289.3117548421961
 30
0.0
 10
897.753719408299
 20
-289.3214500760054
 30
0.0
  0
LWPOLYLINE
  5
107
330
1F
100
AcDbEntity
  8
0
  6
Continuous
 62
     7
370
    25
100
AcDbPolyline
 90
       29
 70
   128
 43
0.0
 10
707.5075029626
 20
-393.0298389813
 10
708.4848248889
 20
-393.7373183113
 10
709.1649388064
 20
-394.5526050645
 10
709.5137409635
 20
-395.434817359
 10
709.5137409635
 20
-396.3397173864
 10
709.1649388064
 20
-397.2219296809
 10
708.4848248889
 20
-398.0372164342
 10
707.5075029626
 20
-398.7446957641
 10
706.2819800299
 20
-399.3088917029
 10
704.869708928
 20
-399.7015131103
 10
703.341506827
 20
-399.9028723096
 10
701.7740041616
 20
-399.9028723096
 10
700.2458020606
 20
-399.7015131103
 10
698.8335309587
 20
-399.3088917029
 10
697.608008026
 20
-398.7446957641
 10
696.6306860997
 20
-398.0372164342
 10
695.9505721821
 20
-397.2219296809
 10
695.601770025
 20
-396.3397173864
 10
695.601770025
 20
-395.434817359
 10
695.9505721821
 20
-394.5526050645
 10
696.6306860997
 20
-393.7373183113
 10
697.608008026
 20
-393.0298389813
 10
698.8335309587
 20
-392.4656430425
 10
700.2458020606
 20
-392.0730216351
 10
701.7740041616
 20
-391.8716624359
 10
703.341506827
 20
-391.8716624359
 10
704.869708928
 20
-392.0730216351
 10
706.2819800299
 20
-392.4656430425
 10
707.5075029626
 20
-393.0298389813
  0
LWPOLYLINE
  5
108
330
1F
100
AcDbEntity
  8
0
  6
Continuous
 62
     7
370
    25
100
AcDbPolyline
 90
       24
 70
   128
 43
0.0
 10
706.0932894002
 20
-393.8462470932
 10
706.9160578444
 20
-394.472594343
 10
707.4155909413
 20
-395.2038614198
 10
707.5548406061
 20
-395.9858135897
 10
707.3234793284
 20
-396.7604570375
 10
706.7386661156
 20
-397.4703400024
 10
705.8437738884
 20
-398.0628137125
 10
704.7051727094
 20
-398.4939371031
 10
703.4073074194
 20
-398.7317357244
 10
702.0464347496
 20
-398.7585731407
 10
700.7234844002
 20
-398.5724589435
 10
699.5365735467
 20
-398.1871963715
 10
698.5737299372
 20
-397.6313585871
 10
697.9063632776
 20
-396.946169536
 10
697.5839691
 20
-396.1824465556
 10
697.6304579057
 20
-395.3968314856
 10
698.0423818327
 20
-394.6475898017
 10
698.7891903676
 20
-393.9902893321
 10
699.815496138
 20
-393.4736790457
 10
701.0451827399
 20
-393.1360735641
 10
702.3870499434
 20
-393.0025115414
 10
703.7415775966
 20
-393.0828986618
 10
705.0083065802
 20
-393.3712729804
 10
706.0932894002
 20
-393.8462470932
  0
SPLINE
  5
109
330
1F
100
AcDbEntity
  8
0
  6
Continuous
 62
     7
370
    25
100
AcDbSpline
210
0.0
220
0.0
230
1.0
 70
     8
 71
     3
 72
    15
 73
    11
 74
     0
 42
0.00000001
 43
0.00000001
 40
0.0
 40
0.0
 40
0.0
 40
0.0
 40
0.0308680131930993
 40
0.1718282782837186
 40
0.3127899866949146
 40
0.4537867722174986
 40
0.5948194498224564
 40
0.7358360673897598
 40
0.8767870427419053
 40
1.0
 40
1.0
 40
1.0
 40
1.0
 10
697.9621325774635
 20
-396.9476992850854
 30
0.0
 10
697.9936423197481
 20
-396.8788390460413
 30
0.0
 10
698.1690428138473
 20
-396.4955252174788
 30
0.0
 10
699.0068507362855
 20
-395.9100295879616
 30
0.0
 10
700.3731972053727
 20
-395.3144742743883
 30
0.0
 10
702.02963967841
 20
-395.0216398506251
 30
0.0
 10
703.7375085827194
 20
-395.0574447060628
 30
0.0
 10
705.3022517605361
 20
-395.4298133103055
 30
0.0
 10
706.5514977348237
 20
-396.0553004182071
 30
0.0
 10
706.99043926803
 20
-396.6206089182852
 30
0.0
 10
707.1951730628193
 20
-396.8842835667108
 30
0.0
  0
LWPOLYLINE
  5
10A
330
1F
100
AcDbEntity
  8
0
  6
Continuous
 62
     7
370
    25
100
AcDbPolyline
 90
       29
 70
   128
 43
0.0
 10
892.7694796335
 20
-286.0803763326
 10
891.7921577072
 20
-285.3728970026
 10
891.1120437896
 20
-284.5576102494
 10
890.7632416325
 20
-283.6753979549
 10
890.7632416325
 20
-282.7704979275
 10
891.1120437896
 20
-281.888285633
 10
891.7921577072
 20
-281.0729988797
 10
892.7694796335
 20
-280.3655195498
 10
893.9950025662
 20
-279.801323611
 10
895.4072736681
 20
-279.4087022036
 10
896.935475769
 20
-279.2073430043
 10
898.5029784345
 20
-279.2073430043
 10
900.0311805355
 20
-279.4087022036
 10
901.4434516374
 20
-279.801323611
 10
902.6689745701
 20
-280.3655195498
 10
903.6462964964
 20
-281.0729988797
 10
904.3264104139
 20
-281.888285633
 10
904.675212571
 20
-282.7704979275
 10
904.675212571
 20
-283.6753979549
 10
904.3264104139
 20
-284.5576102494
 10
903.6462964964
 20
-285.3728970026
 10
902.6689745701
 20
-286.0803763326
 10
901.4434516374
 20
-286.6445722714
 10
900.0311805355
 20
-287.0371936788
 10
898.5029784345
 20
-287.238552878
 10
896.935475769
 20
-287.238552878
 10
895.4072736681
 20
-287.0371936788
 10
893.9950025662
 20
-286.6445722714
 10
892.7694796335
 20
-286.0803763326
  0
LWPOLYLINE
  5
10B
330
1F
100
AcDbEntity
  8
0
  6
Continuous
 62
     7
370
    25
100
AcDbPolyline
 90
       24
 70
   128
 43
0.0
 10
894.1836931958
 20
-285.2639682208
 10
893.3609247516
 20
-284.6376209709
 10
892.8613916548
 20
-283.9063538942
 10
892.7221419899
 20
-283.1244017243
 10
892.9535032677
 20
-282.3497582764
 10
893.5383164805
 20
-281.6398753115
 10
894.4332087077
 20
-281.0474016014
 10
895.5718098866
 20
-280.6162782109
 10
896.8696751766
 20
-280.3784795895
 10
898.2305478465
 20
-280.3516421732
 10
899.5534981958
 20
-280.5377563704
 10
900.7404090494
 20
-280.9230189425
 10
901.7032526588
 20
-281.4788567269
 10
902.3706193185
 20
-282.164045778
 10
902.6930134961
 20
-282.9277687583
 10
902.6465246904
 20
-283.7133838284
 10
902.2346007634
 20
-284.4626255122
 10
901.4877922284
 20
-285.1199259818
 10
900.461486458
 20
-285.6365362682
 10
899.2317998562
 20
-285.9741417498
 10
897.8899326527
 20
-286.1077037725
 10
896.5354049994
 20
-286.0273166521
 10
895.2686760159
 20
-285.7389423335
 10
894.1836931958
 20
-285.2639682208
  0
SPLINE
  5
10C
330
1F
100
AcDbEntity
  8
0
  6
Continuous
 62
     7
370
    25
100
AcDbSpline
210
0.0
220
0.0
230
1.0
 70
     8
 71
     3
 72
    15
 73
    11
 74
     0
 42
0.00000001
 43
0.00000001
 40
0.0
 40
0.0
 40
0.0
 40
0.0
 40
0.0355130645831266
 40
0.176579369618358
 40
0.3176114657382498
 40
0.4586072635106921
 40
0.5995999587441814
 40
0.7406069478773635
 40
0.8816187203767224
 40
1.0
 40
1.0
 40
1.0
 40
1.0
 10
893.0844870518007
 20
-284.3055126584796
 30
0.0
 10
893.1184762903915
 20
-284.2286165467254
 30
0.0
 10
893.2874788362053
 20
-283.846270863551
 30
0.0
 10
894.1190140419848
 20
-283.2730667819298
 30
0.0
 10
895.4744678137806
 20
-282.7039467486959
 30
0.0
 10
897.1242765726919
 20
-282.4311982713781
 30
0.0
 10
898.833455897385
 20
-282.478596045136
 30
0.0
 10
900.4059910952118
 20
-282.8527722101063
 30
0.0
 10
901.6570244879583
 20
-283.462419758263
 30
0.0
 10
902.101498347933
 20
-284.0057295946702
 30
0.0
 10
902.3043464345426
 20
-284.2536842454963
 30
0.0
  0
LWPOLYLINE
  5
10D
330
1F
100
AcDbEntity
  8
0
  6
Continuous
 62
     1
370
    25
100
AcDbPolyline
 90
       85
 70
   128
 43
0.0
 10
669.3094198045
 20
-333.9659007863
 10
671.0541920034
 20
-332.9870645239
 10
675.8518399548
 20
-330.5739586272
 10
680.8168762033
 20
-328.4721584812
 10
685.942101921
 20
-326.6847114952
 10
691.2200860206
 20
-325.2142092964
 10
696.6431759298
 20
-324.0627839724
 10
702.2035086866
 20
-323.2321049799
 10
707.8930223401
 20
-322.7233767239
 10
713.7034676394
 20
-322.5373368119
 10
719.6264199943
 20
-322.6742549839
 10
725.6532916902
 20
-323.1339327216
 10
731.7753443393
 20
-323.9157035364
 10
737.9837015504
 20
-325.0184339351
 10
744.2693617993
 20
-326.4405250642
 10
750.6232114793
 20
-328.1799150275
 10
757.036038116
 20
-330.2340818759
 10
763.4985437238
 20
-332.6000472637
 10
770.0013582873
 20
-335.2743807674
 10
776.5350533471
 20
-338.253204859
 10
783.09015567
 20
-341.5322005285
 10
789.6571609844
 20
-345.1066135455
 10
796.2265477603
 20
-348.9712613528
 10
802.7887910149
 20
-353.1205405807
 10
809.3343761229
 20
-357.548435171
 10
815.8538126116
 20
-362.2485250997
 10
822.3376479214
 20
-367.2139956858
 10
828.7764811109
 20
-372.4376474717
 10
835.1609764877
 20
-377.9119066617
 10
841.4818771437
 20
-383.6288361033
 10
847.7300183772
 20
-389.5801467953
 10
853.8963409809
 20
-395.7572099062
 10
859.9719043765
 20
-402.151069285
 10
865.9478995778
 20
-408.7524544469
 10
871.8156619631
 20
-415.5517940144
 10
877.566683838
 20
-422.5392295953
 10
883.1926267704
 20
-429.704630076
 10
888.6853336811
 20
-437.0376063107
 10
894.0368406701
 20
-444.527526185
 10
899.2393885639
 20
-452.1635300311
 10
904.2854341653
 20
-459.9345463734
 10
909.1676611908
 20
-467.8293079812
 10
913.8789908778
 20
-475.8363682048
 10
918.4125922486
 20
-483.9441175725
 10
922.7618920148
 20
-492.1408006227
 10
926.9205841075
 20
-500.4145329486
 10
930.8826388207
 20
-508.7533184294
 10
934.6423115538
 20
-517.1450666233
 10
938.1941511409
 20
-525.5776102976
 10
941.533007754
 20
-534.0387230702
 10
944.6540403703
 20
-542.5161371365
 10
947.5527237909
 20
-550.9975610566
 10
950.2248552018
 20
-559.4706975765
 10
952.6665602681
 20
-567.9232614583
 10
954.8742987509
 20
-576.3429972925
 10
956.8448696402
 20
-584.7176972672
 10
958.5754157969
 20
-593.0352188678
 10
960.0634280944
 20
-601.2835024834
 10
961.306749057
 20
-609.4505888911
 10
962.3035759884
 20
-617.5246365965
 10
963.0524635847
 20
-625.4939390023
 10
963.5523260304
 20
-633.3469413818
 10
963.802438573
 20
-641.0722576325
 10
963.802438573
 20
-648.6586867842
 10
963.5523260304
 20
-656.0952292399
 10
963.0524635847
 20
-663.3711027241
 10
962.3035759884
 20
-670.4757579158
 10
961.306749057
 20
-677.3988937441
 10
960.0634280944
 20
-684.130472324
 10
958.5754157969
 20
-690.66073351
 10
956.8448696402
 20
-696.9802090478
 10
954.8742987509
 20
-703.0797363019
 10
952.6665602681
 20
-708.950471541
 10
950.2248552018
 20
-714.5839027602
 10
947.5527237909
 20
-719.9718620228
 10
944.6540403703
 20
-725.106537303
 10
941.533007754
 20
-729.9804838125
 10
938.1941511409
 20
-734.5866347948
 10
934.6423115538
 20
-738.9183117714
 10
930.8826388207
 20
-742.9692342246
 10
926.9205841075
 20
-746.7335287044
 10
922.7618920148
 20
-750.2057373434
 10
918.4125922486
 20
-753.3808257712
 10
913.8789908778
 20
-756.254190413
 10
913.2895591143
 20
-756.5977637853
  0
LWPOLYLINE
  5
10E
330
1F
100
AcDbEntity
  8
0
  6
Continuous
 62
     1
370
    25
100
AcDbPolyline
 90
       85
 70
   128
 43
0.0
 10
686.9872406813
 20
-323.7607120175
 10
688.7318615331
 20
-322.7819631261
 10
693.5295094844
 20
-320.3688572294
 10
698.4945457329
 20
-318.2670570834
 10
703.6197714507
 20
-316.4796100974
 10
708.8977555503
 20
-315.0091078986
 10
714.3208454594
 20
-313.8576825746
 10
719.8811782162
 20
-313.0270035821
 10
725.5706918697
 20
-312.5182753262
 10
731.381137169
 20
-312.3322354141
 10
737.304089524
 20
-312.4691535861
 10
743.3309612199
 20
-312.9288313239
 10
749.4530138689
 20
-313.7106021386
 10
755.6613710801
 20
-314.8133325373
 10
761.9470313289
 20
-316.2354236664
 10
768.300881009
 20
-317.9748136298
 10
774.7137076457
 20
-320.0289804781
 10
781.1762132534
 20
-322.3949458659
 10
787.6790278169
 20
-325.0692793696
 10
794.2127228768
 20
-328.0481034613
 10
800.7678251997
 20
-331.3270991307
 10
807.3348305141
 20
-334.9015121477
 10
813.9042172899
 20
-338.766159955
 10
820.4664605445
 20
-342.9154391829
 10
827.0120456525
 20
-347.3433337732
 10
833.5314821412
 20
-352.0434237019
 10
840.015317451
 20
-357.008894288
 10
846.4541506406
 20
-362.2325460739
 10
852.8386460173
 20
-367.7068052639
 10
859.1595466733
 20
-373.4237347055
 10
865.4076879069
 20
-379.3750453975
 10
871.5740105106
 20
-385.5521085084
 10
877.6495739061
 20
-391.9459678872
 10
883.6255691074
 20
-398.5473530491
 10
889.4933314928
 20
-405.3466926166
 10
895.2443533676
 20
-412.3341281975
 10
900.8702963001
 20
-419.4995286782
 10
906.3630032108
 20
-426.8325049129
 10
911.7145101998
 20
-434.3224247872
 10
916.9170580935
 20
-441.9584286333
 10
921.963103695
 20
-449.7294449756
 10
926.8453307204
 20
-457.6242065834
 10
931.5566604074
 20
-465.631266807
 10
936.0902617783
 20
-473.7390161747
 10
940.4395615445
 20
-481.9356992249
 10
944.5982536372
 20
-490.2094315508
 10
948.5603083504
 20
-498.5482170316
 10
952.3199810835
 20
-506.9399652255
 10
955.8718206705
 20
-515.3725088998
 10
959.2106772837
 20
-523.8336216725
 10
962.3317099
 20
-532.3110357388
 10
965.2303933205
 20
-540.7924596588
 10
967.9025247315
 20
-549.2655961787
 10
970.3442297978
 20
-557.7181600605
 10
972.5519682805
 20
-566.1378958948
 10
974.5225391699
 20
-574.5125958694
 10
976.2530853266
 20
-582.83011747
 10
977.741097624
 20
-591.0784010856
 10
978.9844185867
 20
-599.2454874933
 10
979.981245518
 20
-607.3195351987
 10
980.7301331143
 20
-615.2888376045
 10
981.2299955601
 20
-623.1418399841
 10
981.4801081026
 20
-630.8671562347
 10
981.4801081026
 20
-638.4535853864
 10
981.2299955601
 20
-645.8901278421
 10
980.7301331143
 20
-653.1660013263
 10
979.981245518
 20
-660.270656518
 10
978.9844185867
 20
-667.1937923463
 10
977.741097624
 20
-673.9253709262
 10
976.2530853266
 20
-680.4556321122
 10
974.5225391699
 20
-686.77510765
 10
972.5519682805
 20
-692.8746349041
 10
970.3442297978
 20
-698.7453701432
 10
967.9025247315
 20
-704.3788013624
 10
965.2303933205
 20
-709.7667606251
 10
962.3317099
 20
-714.9014359053
 10
959.2106772837
 20
-719.7753824147
 10
955.8718206705
 20
-724.381533397
 10
952.3199810835
 20
-728.7132103736
 10
948.5603083504
 20
-732.7641328269
 10
944.5982536372
 20
-736.5284273066
 10
940.4395615445
 20
-740.0006359456
 10
936.0902617783
 20
-743.1757243734
 10
931.5566604074
 20
-746.0490890152
 10
930.9674114445
 20
-746.3925568593
  0
ENDSEC
  0
SECTION
  2
OBJECTS
  0
DICTIONARY
  5
C
330
0
100
AcDbDictionary
281
     1
  3
ACAD_GROUP
350
D
  3
ACAD_LAYOUT
350
1A
  3
ACAD_MLINESTYLE
350
17
  3
ACAD_PLOTSETTINGS
350
19
  3
ACAD_PLOTSTYLENAME
350
E
  3
ACAD_SCALELIST
350
47
  3
DWGPROPS
350
10F
  0
DICTIONARY
  5
D
102
{ACAD_REACTORS
330
C
102
}
330
C
100
AcDbDictionary
281
     1
  0
DICTIONARY
  5
1A
102
{ACAD_REACTORS
330
C
102
}
330
C
100
AcDbDictionary
281
     1
  3
Layout1
350
1E
  3
Layout2
350
26
  3
Model
350
22
  0
DICTIONARY
  5
17
102
{ACAD_REACTORS
330
C
102
}
330
C
100
AcDbDictionary
281
     1
  3
Standard
350
18
  0
DICTIONARY
  5
19
102
{ACAD_REACTORS
330
C
102
}
330
C
100
AcDbDictionary
281
     1
  0
ACDBDICTIONARYWDFLT
  5
E
102
{ACAD_REACTORS
330
C
102
}
330
C
100
AcDbDictionary
281
     1
  3
Normal
350
F
100
AcDbDictionaryWithDefault
340
F
  0
DICTIONARY
  5
47
102
{ACAD_REACTORS
330
C
102
}
330
C
100
AcDbDictionary
281
     1
  3
A0
350
48
  3
A1
350
49
  3
A2
350
4A
  3
A3
350
4B
  3
A4
350
4C
  3
A5
350
4D
  3
A6
350
4E
  3
A7
350
4F
  3
A8
350
50
  3
A9
350
51
  3
B0
350
52
  3
B1
350
53
  3
B2
350
54
  3
B3
350
55
  3
B4
350
56
  3
B5
350
57
  3
B6
350
58
  3
B7
350
59
  3
B8
350
5A
  3
B9
350
5B
  3
C0
350
5C
  3
C1
350
5D
  3
C2
350
5E
  3
C3
350
5F
  3
C4
350
60
  3
C5
350
61
  3
C6
350
62
  3
C7
350
63
  3
C8
350
64
  3
C9
350
65
  3
D0
350
66
  3
D1
350
67
  3
D2
350
68
  0
XRECORD
  5
10F
102
{ACAD_REACTORS
330
C
102
}
330
C
100
AcDbXrecord
280
     1
  1
DWGPROPS COOKIE
  2

  3

  4

  6

  7

  8
b.kav
  9

300
=
301
=
302
=
303
=
304
=
305
=
306
=
307
=
308
=
309
=
 40
0.0
 41
2459935.585454502
 42
2459935.585454687
  1

 90
        0
  0
LAYOUT
  5
1E
102
{ACAD_REACTORS
330
1A
102
}
330
1A
100
AcDbPlotSettings
  1

  2
none_device
  4

  6

 40
0.0
 41
0.0
 42
0.0
 43
0.0
 44
0.0
 45
0.0
 46
0.0
 47
0.0
 48
0.0
 49
0.0
140
0.0
141
0.0
142
1.0
143
1.0
 70
   688
 72
     1
 73
     0
 74
     5
  7

 75
    16
147
1.0
148
0.0
149
0.0
100
AcDbLayout
  1
Layout1
 70
     1
 71
     1
 10
0.0
 20
0.0
 11
420.0
 21
297.0
 12
0.0
 22
0.0
 32
0.0
 14
1.0000000000E+20
 24
1.0000000000E+20
 34
1.0000000000E+20
 15
-1.0000000000E+20
 25
-1.0000000000E+20
 35
-1.0000000000E+20
146
0.0
 13
0.0
 23
0.0
 33
0.0
 16
1.0
 26
0.0
 36
0.0
 17
0.0
 27
1.0
 37
0.0
 76
     0
330
1B
  0
LAYOUT
  5
26
102
{ACAD_REACTORS
330
1A
102
}
330
1A
100
AcDbPlotSettings
  1

  2
none_device
  4

  6

 40
0.0
 41
0.0
 42
0.0
 43
0.0
 44
0.0
 45
0.0
 46
0.0
 47
0.0
 48
0.0
 49
0.0
140
0.0
141
0.0
142
1.0
143
1.0
 70
   688
 72
     1
 73
     0
 74
     5
  7

 75
    16
147
1.0
148
0.0
149
0.0
100
AcDbLayout
  1
Layout2
 70
     1
 71
     2
 10
0.0
 20
0.0
 11
0.0
 21
0.0
 12
0.0
 22
0.0
 32
0.0
 14
0.0
 24
0.0
 34
0.0
 15
0.0
 25
0.0
 35
0.0
146
0.0
 13
0.0
 23
0.0
 33
0.0
 16
1.0
 26
0.0
 36
0.0
 17
0.0
 27
1.0
 37
0.0
 76
     0
330
23
  0
LAYOUT
  5
22
102
{ACAD_REACTORS
330
1A
102
}
330
1A
100
AcDbPlotSettings
  1

  2
none_device
  4
Letter_(8.50_x_11.00_Inches)
  6

 40
6.35
 41
6.35
 42
6.35000508
 43
6.35000508
 44
215.9
 45
279.4
 46
0.0
 47
0.0
 48
0.0
 49
0.0
140
0.0
141
0.0
142
1.0
143
1.0
 70
  1712
 72
     1
 73
     0
 74
     0
  7

 75
     0
147
1.0
148
0.0
149
0.0
100
AcDbLayout
  1
Model
 70
     1
 71
     0
 10
0.0
 20
0.0
 11
279.4
 21
215.9
 12
0.0
 22
0.0
 32
0.0
 14
0.0
 24
0.0
 34
0.0
 15
279.4
 25
215.9
 35
0.0
146
0.0
 13
0.0
 23
0.0
 33
0.0
 16
1.0
 26
0.0
 36
0.0
 17
0.0
 27
1.0
 37
0.0
 76
     0
330
1F
331
29
  0
MLINESTYLE
  5
18
102
{ACAD_REACTORS
330
17
102
}
330
17
100
AcDbMlineStyle
  2
Standard
 70
     0
  3

 62
   256
 51
90.0
 52
90.0
 71
     2
 49
0.5
 62
   256
  6
BYLAYER
 49
-0.5
 62
   256
  6
BYLAYER
  0
ACDBPLACEHOLDER
  5
F
102
{ACAD_REACTORS
330
E
102
}
330
E
  0
SCALE
  5
48
102
{ACAD_REACTORS
330
47
102
}
330
47
100
AcDbScale
 70
     0
300
1:1
140
1.0
141
1.0
290
     1
  0
SCALE
  5
49
102
{ACAD_REACTORS
330
47
102
}
330
47
100
AcDbScale
 70
     0
300
1:2
140
1.0
141
2.0
290
     0
  0
SCALE
  5
4A
102
{ACAD_REACTORS
330
47
102
}
330
47
100
AcDbScale
 70
     0
300
1:4
140
1.0
141
4.0
290
     0
  0
SCALE
  5
4B
102
{ACAD_REACTORS
330
47
102
}
330
47
100
AcDbScale
 70
     0
300
1:5
140
1.0
141
5.0
290
     0
  0
SCALE
  5
4C
102
{ACAD_REACTORS
330
47
102
}
330
47
100
AcDbScale
 70
     0
300
1:8
140
1.0
141
8.0
290
     0
  0
SCALE
  5
4D
102
{ACAD_REACTORS
330
47
102
}
330
47
100
AcDbScale
 70
     0
300
1:10
140
1.0
141
10.0
290
     0
  0
SCALE
  5
4E
102
{ACAD_REACTORS
330
47
102
}
330
47
100
AcDbScale
 70
     0
300
1:16
140
1.0
141
16.0
290
     0
  0
SCALE
  5
4F
102
{ACAD_REACTORS
330
47
102
}
330
47
100
AcDbScale
 70
     0
300
1:20
140
1.0
141
20.0
290
     0
  0
SCALE
  5
50
102
{ACAD_REACTORS
330
47
102
}
330
47
100
AcDbScale
 70
     0
300
1:30
140
1.0
141
30.0
290
     0
  0
SCALE
  5
51
102
{ACAD_REACTORS
330
47
102
}
330
47
100
AcDbScale
 70
     0
300
1:40
140
1.0
141
40.0
290
     0
  0
SCALE
  5
52
102
{ACAD_REACTORS
330
47
102
}
330
47
100
AcDbScale
 70
     0
300
1:50
140
1.0
141
50.0
290
     0
  0
SCALE
  5
53
102
{ACAD_REACTORS
330
47
102
}
330
47
100
AcDbScale
 70
     0
300
1:100
140
1.0
141
100.0
290
     0
  0
SCALE
  5
54
102
{ACAD_REACTORS
330
47
102
}
330
47
100
AcDbScale
 70
     0
300
2:1
140
2.0
141
1.0
290
     0
  0
SCALE
  5
55
102
{ACAD_REACTORS
330
47
102
}
330
47
100
AcDbScale
 70
     0
300
4:1
140
4.0
141
1.0
290
     0
  0
SCALE
  5
56
102
{ACAD_REACTORS
330
47
102
}
330
47
100
AcDbScale
 70
     0
300
8:1
140
8.0
141
1.0
290
     0
  0
SCALE
  5
57
102
{ACAD_REACTORS
330
47
102
}
330
47
100
AcDbScale
 70
     0
300
10:1
140
10.0
141
1.0
290
     0
  0
SCALE
  5
58
102
{ACAD_REACTORS
330
47
102
}
330
47
100
AcDbScale
 70
     0
300
100:1
140
100.0
141
1.0
290
     0
  0
SCALE
  5
59
102
{ACAD_REACTORS
330
47
102
}
330
47
100
AcDbScale
 70
     0
300
1/128" = 1'-0"
140
0.0078125
141
12.0
290
     0
  0
SCALE
  5
5A
102
{ACAD_REACTORS
330
47
102
}
330
47
100
AcDbScale
 70
     0
300
1/64" = 1'-0"
140
0.015625
141
12.0
290
     0
  0
SCALE
  5
5B
102
{ACAD_REACTORS
330
47
102
}
330
47
100
AcDbScale
 70
     0
300
1/32" = 1'-0"
140
0.03125
141
12.0
290
     0
  0
SCALE
  5
5C
102
{ACAD_REACTORS
330
47
102
}
330
47
100
AcDbScale
 70
     0
300
1/16" = 1'-0"
140
0.0625
141
12.0
290
     0
  0
SCALE
  5
5D
102
{ACAD_REACTORS
330
47
102
}
330
47
100
AcDbScale
 70
     0
300
3/32" = 1'-0"
140
0.09375
141
12.0
290
     0
  0
SCALE
  5
5E
102
{ACAD_REACTORS
330
47
102
}
330
47
100
AcDbScale
 70
     0
300
1/8" = 1'-0"
140
0.125
141
12.0
290
     0
  0
SCALE
  5
5F
102
{ACAD_REACTORS
330
47
102
}
330
47
100
AcDbScale
 70
     0
300
3/16" = 1'-0"
140
0.1875
141
12.0
290
     0
  0
SCALE
  5
60
102
{ACAD_REACTORS
330
47
102
}
330
47
100
AcDbScale
 70
     0
300
1/4" = 1'-0"
140
0.25
141
12.0
290
     0
  0
SCALE
  5
61
102
{ACAD_REACTORS
330
47
102
}
330
47
100
AcDbScale
 70
     0
300
3/8" = 1'-0"
140
0.375
141
12.0
290
     0
  0
SCALE
  5
62
102
{ACAD_REACTORS
330
47
102
}
330
47
100
AcDbScale
 70
     0
300
1/2" = 1'-0"
140
0.5
141
12.0
290
     0
  0
SCALE
  5
63
102
{ACAD_REACTORS
330
47
102
}
330
47
100
AcDbScale
 70
     0
300
3/4" = 1'-0"
140
0.75
141
12.0
290
     0
  0
SCALE
  5
64
102
{ACAD_REACTORS
330
47
102
}
330
47
100
AcDbScale
 70
     0
300
1" = 1'-0"
140
1.0
141
12.0
290
     0
  0
SCALE
  5
65
102
{ACAD_REACTORS
330
47
102
}
330
47
100
AcDbScale
 70
     0
300
1-1/2" = 1'-0"
140
1.5
141
12.0
290
     0
  0
SCALE
  5
66
102
{ACAD_REACTORS
330
47
102
}
330
47
100
AcDbScale
 70
     0
300
3" = 1'-0"
140
3.0
141
12.0
290
     0
  0
SCALE
  5
67
102
{ACAD_REACTORS
330
47
102
}
330
47
100
AcDbScale
 70
     0
300
6" = 1'-0"
140
6.0
141
12.0
290
     0
  0
SCALE
  5
68
102
{ACAD_REACTORS
330
47
102
}
330
47
100
AcDbScale
 70
     0
300
1'-0" = 1'-0"
140
12.0
141
12.0
290
     0
  0
ENDSEC
  0
EOF
